P. 1
Akordi

Akordi

|Views: 14,224|Likes:
Published by NenadTest Boza

More info:

Published by: NenadTest Boza on Mar 09, 2011
Copyright:Attribution Non-commercial

Availability:

Read on Scribd mobile: iPhone, iPad and Android.
download as DOC, PDF, TXT or read online from Scribd
See more
See less

01/25/2014

pdf

text

original

IZVUCI SADRZAJ-226 strana

DIVLJI ANĐELI - VOLI TE TVOJA ZVER
intro: (G) Dm G, Dm G, Dm G, Dm G
C Cmaj C F Fadd11+ F 3x
Dm G
G C F Am F
M-m-m Tvoj dah me mami da ti se dam
C F C F
I hocu, dugo, dugo sam sam
C F Am F
Ne, necu za nju, necu da znam
C F C F
Tvoj dah me mami da ti se dam
Am G Am
Voli te, voli te, tvoja zver
G Am
Princ iz zivota tvog
G Am G
Sudbine tvoje dar i zar
ref 1:
F G C
Ostavio sam trag po telu tvom
F G C
Koji nikad, nikad nece da prodje
F G C
Ostavio sam prah u srcu tvom
F G
I to ce uvek, uvek da traje
ref 2:
Am G Am
Ne, ti nisi htela andjela
G Am
Htela si crnog djavola
G Am G
Od mene si to i dobila
< ref 1, 2 >
Da znas...
< solo: C Cmaj C F Fadd11+ F 3x, Dm G >
< strofa 1, 2 >
< ref 1, 2 >
< ref 1, 2 >
ELEKTRIČNI ORGAZAM :: DAL’ SI TAKO JAKA
Am C G/B
e-|-----------0----------------------------
B-|-------------1-------------1------------
2
G-|---------2-----2---------0-----------0--
D-|-------2---------------2-----------0----
A-|---0---------------3-----------2--------
E-|----------------------------------------
Am C G
Danas nemoj da me zoves
Am C G
Danas nemoj da me trazis
Am C G
Danas nemoj da me zoves
Am C G
Danas nemoj da me trazis
Am C G
Budi ono sto si htela
Am C G
Budi ponosna i smela
D
Uvek sam te gledao
C
Ti si bila najlepsa
Am G
Tako sam zeleo da budem tvoj
Ref:
F G
Da li mozes, da li zelis,
C Am
Dal' si uvek tako jaka
F G C
Da li mozes, da izdrzis sve
C
Dal' si tako jaka
PRLJAVO KAZALIŠTE :: TU NOĆ KAD SI SE UDAVALA
Am F G
Tu noc kad si se udavala
Em Am
Nitko ne zna zasto si plakala
F G
Da li radi tamjana
Em Am
Ili starih uspomena.
F G
Tu noc kad si se udavala
Em Am
Nitko ne zna zasto si plakala
F G F
Ili ti je kroz glavu proslo sve.
Tu noc kad si se udavala
Mene pijanog su odnijeli
Moji prijatelji, vjerni psi
Do jutra me tjesili
Da ima milion takvih kao sto si ti
I da cu te preboljeti.
3
F G
Tu noc kad si se udavala
E
Meni kroz glavu proslo je ...
F G Am
Postoje neki drugi svjetovi
F G Am
Za nas bi bili rajski cvjetovi
F G Am
O samo da si htjela pobjeci
F G E
Ovako stisni zube ne placi.
Tu noc kad si se udavala
Meni kroz glavu proslo je
Tvoje smijesne za maturu haljine
Sandale boje mjesecine.
Postoje neki drugi svjetovi
Za nas bi bili rajski cvjetovi
O samo da si htjela pobjeci
Ovako stisni zube ne placi
PRLJAVO KAZALIŠTE :: AKO TRAZIŠ NEKOGA
UVOD: Am Amsus2 Am Amsus2 Am
Am G
Ako trazis nekoga
Dm
Nekoga za setanje
F Am
Onda ja sam covjek za tebe
G
Imam sedam milja duge
Dm F Am
Korake lake kao oblake

G
Ako trazis nekoga
Dm
Nekoga za plakanje
F Am Asus2
Onda ja sam rame za tebe
REFREN:
F Am
Uzmi me to je sudbina
G
Ima zena koje zakljucaju
F C
Srce poput dragog kamena
F Am
Uzmi me to je sudbina
G
Ima zena koje zakljucaju
F Am
Srce poput dragog kamena

4
Ako trazis nekoga
Nekoga za cuvanje
Onda imam ruke za tebe
I za tvoje vrelo celo
Dlanove, hej, meke kao jastuke
Ako trazis nekoga
Nekoga za zauvijek
Onda tvoj sam covjek oduvijek
Refren
PRLJAVO KAZALIŠTE :: NE ZOVI MAMA DOKTORA
A E D
Sta sad ljubav, Sta sad ljubav ima s tim,
A E D
Kad te vise ne volim, Kad te vise ne volim 2x
A E D D A
Ma ne placem Mama, ne rade to muskarcine,
sve je to od dima ma kakve emocije,
i to stp ne jedem mama, to je stvar linije,
ti sama znas da ne trpim savjete.
Sta sad ljubav, Sta sad ljubav ima s tim,
Kad te vise ne volim, Kad te vise ne volim 2x
Ne zovi mama, ne zovi doktora,
jer nema ljeka, otic kod doktora,
ma dobro mama preboljecu ja to,
samo pusti nek svira glasno Rock 'n Roll.
Sta sad ljubav, Sta sad ljubav ima s tim,
Kad te vise ne volim, Kad te vise ne volim 2x
ALISA :: BLAGO ONOM KO TE NE SANJA
uvod: Cm B
Cm
ponoc je moje raskrsce i moja
B Cm
poslednja sansa da pobegnem
Cm
tuzno je sto me najcesce bas tada
B Cm
sjecanja stignu i povrede
Prelaz:
Cm
vidim te kao nestalu sjenku kao
B Cm
usahlu reku svoje proslosti
Cm
budis mi onu vecitu tajnu onu
B Cm
najdublju ranu sto ne prolazi
5
refren:
B Cm
bila si mi samo dasak proljeca
B Cm
mali beli cvet sa tresanja oo ooo
B Cm
ali sve me jos na tebe podseca
B Cm B, Cm
blago onom ko te ne sanja ooo oooo
uvod: Cm B
Ne gledam vise dvoriste
A grane tresnje miluju mi prozore
Treba mi neko skloniste
Jer svako secanje vodi u ponore
Prelaz: vidim te.
Refren: bila si mi.
ALISA :: SANJA
Uvod x4:
Am Dm F E
E=---------------8-10--8-7-------10-8-7-----7--------|
H=-10----10---10------------10-----------10------7-9-|
G=-----9----9----------------------------------9-----|
D=---------------------------------------------------|
A=---------------------------------------------------|
E=---------------------------------------------------|
Am
Nemoj Sanja da se menjas, da se stidis lazi,
Dm
najlepsa si kakva jesi, ne dozvoli da te iko kvari,
F E
najgori su Boziji cuvari, ne, ne, ne, ne.
Necu Sanja da ti pricam one stare pesme,
zajedno smo goreli, u istoj peci se pekli,
ko dim razlili meki, ne, ne, ne, ne.
C
Dunavom brodovi plove,
G Am Am Dm Am E
da li se bar jedan zove Sanja, Sa-nja, Sa-nja-a,
C
maslacak sam, vetar me nosi,
G Am Am Dm Am E
ima me u tvojoj kosi, Sanja, Sa-nja, Sa-nj-a.
Nemoj Sanja da se brines, nisam onaj stari,
koji hoce sve da kvari, ciju kicmu drze ideali,
koji mrzi osecaje plitke i nikad ne gubi bitke.
Obuci se kako umes i isturi grudi,
neka tvoja gola noga krene, nek polude ljudi,
nek se zudnja vojnika probudi, ne, ne, ne, ne.
6
Refren
Uvodni solo x2
C G Am
E=------------------------|------------------------|----------------------------
-|
H=------------------------|------------------------|----------------------------
-|
G=-9---7-9---9-9--9-10--9-|-7------7---7-7--7-9--7-|-----------------------
7-----|
D=------------------------|-----10-----------------|-10---9-10---10-10--10----
10-|
A=------------------------|------------------------|----------------------------
-|
E=------------------------|------------------------|----------------------------
-|
G C G
E=------------------------|------------------------|------------------------|
H=-------------8-8-10-8---|------------------------|------------------------|
G=-7----------------------|-9---7-9---9-9--9-10--9-|-7------7---7-7--7-9--7-|
D=-----9------------------|------------------------|-----10-----------------|
A=-------10---------------|------------------------|------------------------|
E=------------------------|------------------------|------------------------|
Am G
E=-----------------------------|----------------------------|
H=-----------------------------|----------------------------|
G=-----------------------7--9--|-7--------------------------|
D=-10---9-10---10-10--10-------|-----9-------------7-9--7---|
A=-----------------------------|-------10----10-10----------|
E=-----------------------------|----------------------------|
Nemoj Sanja da se brines, nisam onaj stari,
koji hoce sve da kvari, ciju kicmu drze ideali,
koji mrzi osecaje plitke i nikad ne gubi bitke.
Obuci se ckako umes i isturi grudi,
neka tvoja gola noga krene, nek polude ljudi,
nek se zudnja vojnika probudi, ne, ne, ne, ne.
Refren
ALISA :: KESTENI
uvod: Dm
Dm
Ako si sama, ako si nocu,
Gm A
probdela sate, videla zoru,
Dm
seti se mene, seti se tada,
Gm A
ulice moje levo od parka,
Gm A Dm Dm
kucice trosne vrata od stakla-a.
Refren:
B A
Zeleo bih da, O-o-o,
Dm
7
imena na----sa ponovo sto---je,
B A
u kori divljeg kestena,
Dm
da usne mo----je osete tvo---je,
B C Dm
u senci naseg kestena-a.
Ako si sama, ako na uglu,
ugledas klupu, osetis tugu,
seti se mene, seti se tada,
ulice moje levo od parka,
kucice trosne vrata od stakla.
Refren
ALISA :: SEĆANJA
ritam: un-ca-ca un-ca
Uvod: Am (4x)
Am
Mesec se sunja oko tvoje zgrade,
Am G Am
tajno te gleda, oci mu se slade, neka ga,
Am
ma, sve sto imam bacicu u vodu,
Am G Am Am
samo za tvoju odecu po podu, ko nekada.
Ko san bez jave, kao noc bez dana,
nasa je prica bez poslednjih strana ostala,
da li si nasla utociste neko,
il je i tebi ko meni daleko obala.
Dm Am
Secanja stezu omcu oko vrata,
Dm Am G Am Am
vreme se sprema da zatvori vrata mladosti,
Dm Am
a moje ladje nasukane stoje,
Dm Am G Am Am
i zivim samo za trenutak tvoje slabosti.
Uvod: Am (4x)
Pada prasina na pione moje,
partija se saha protiv vasione odvija,
pitanje tesko razdire mi grudi,
onaj ko voli da l uvek vise gubi il dobija.
Refren
ALISA :: SKIDAM KOSULJU DA LEGNEM
Razlaganje (strofa):
Am
8
otvaras vrata draga moja
G C E7
kreces ulicom
Am
u vece kad niko ne izlazi
G C E7
laze novac lazu andjeli
Am
tiho mi na usne dolazis
G C E7-let ring
pesma se cuje i prolazi
Refren (4-4tinski):
Am E Am
skidam kosulju da legnem
C G Am F
sa tobom koju volim
C G
dvaput sam zakljucao vrata
F E
da ne udju dok smo goli
strofa
refren x2
ALOGIA :: SAMSON
Uvod x2
E-------------------------------------b11~--------- |s
B-------------------------------------------------- |v
G-------------------------------------------------- 3X|e
D-------------------------------------------------- |
A--6-6-6-6-6-7-7-7-9-9-9-7-7-7-6-6-6--------------- |o
E--4-4---4-4---4-4---4-4---4-4---4-4--------------- |v
|o
E-------------------------------------------------- |
B-------------------------------------------------- |2
G--4---6------------------------------------------- |p
D--4---6----------------6-------------------------- |u
A--2---4---------6-4----6-------------------------- |t
E----------2-4-6----7-6-4-------------------------- |a
G#5 H5
Koliko puta zelis reci da je kraj
C#5 E5 D#
Da vise ne mozes da slusas sta ti govore.
G#5 H5
Zivot je kratak, vreme brzo prolazi
C#5 E5 D#
Uzvrati udarce, jer kasno je za kajanje.
Uvod x2
Duga kosa uvek im je smetala
Tvoj simbol zivota njima je iluzija
Vekovi ce proci al' ce jedno ostati
Ratnici smo bili - bili i ostali!
H5 F#5 C#5 G#5 F#5
9
H5 F#5 C#5
Kao Samson, sa macem u ruci bori se!
G#5 F#5
Ukroti lavove!
Kao Samson, sa snagom u kosi bori se!
Na zivot i smrt!
ALOGIA :: SEĆANJE NA SLIKE IZ SNA
Intro:
E5 F#5 G#5 (po 1 istrzaj pa stop) 4x
Ritam: G#5 F#5 E5 C# E5
G#5 F#5
Neonske noci, neki prazni pogledi
E5
cudne misli sakrivam,
C#5 F#5
grad je hladan kada ostanes sam.
G#5 F#5
Kratak je dah, jos veci je strah sto se budi
E5
sve nestaje, sve postalo je
C#5 F#5 H5 F#5 C#5 H5
hladno kao ova noc.
Refren (X)
d-6-6-------------------
a-4-4--7-7--4-4-4-4-4-6-
e------5-5--2-0-2-0-2-4-
X X
Secanje na slike iz sna uuuu devedesete
X C#5 A5H5
hladan znoj me obliva, budim se.
Prolazi vek, mislim da vreme svemu sudi
budan sanjam nocima,
palim svece da oteram mrak.
Poslednji krug
ulice zvone od koraka
Cujem zvuke bubnjeva
brzi ritam godina iza nas.
Secanje na slike iz sna uuuu devedesete
hladan znoj me obliva, budim se.
VLADO GEORGIEV:: DO SVITANJA
Uvod: D - Dsus4
D
Ako treba ja mogu sve
A
poci s mora na vrh planine
Hm G
da vidim ljude s druge strane
10
D A
jer dobre lako prepoznajem
D
gdje god podjem mozes ti
A
al' dugo mislis pa odustanes
Hm G
i budem sam u divljini
D A
jer ti to ne razumijes
Hm G
kad smo skupa sve nam je blisko
Hm G G
al' hocu novo a ti bi isto
ref:
D
citav svijet mjenja se
G D A
zasto ne bi mogli ti i ja
Hm A
misliti drugacije
G A
zivjeli bi bez kajanja
D
citav svijet ljubi se
G D A
pa zagrli me toplim usnama
Hm A
ljubiti nije grijeh
G A
ljubimo se do svitanja
D
do svitanja
Uvod: D - Dsus4
D
meni sve je avantura
A
i sve mi prija al' ti me namucis
Hm G
kad si hladna kao bura
D A
i svakog bi sve da naucis
Hm G
kad smo skupa sve nam je blisko
Hm G
al' hocu novo ti hoces isto
refren
D A G A
Modulacija:
E
citav svijet mjenja se
11
A E H
zasto ne bi mogli ti i ja
A H
misliti drugacije
A H
zivjeli bi bez kajanja
E
citav svijet ljubi se
A E H
pa zagrli me toplim usnama
A H
ljubiti nije grijeh
A H
ljubimo se do svitanja
E
do svitanja
E E
...bez kajanja...do svitanja...
VLADO GEORGIEV :: TROPSKI BAR

Razlaganje x4: Am, F, C, G
Brzi ritam u ritmu solaze: Am, F, C, G
Kroz cijelu pjesmu : Am, F, C, G
Kad otvoris to 'ladno pivo Vlado
oli dodat' mi ga ti
Da se kucnemo pred put
pa da se uputimo mi
Jer tamo je srcu toplo
i nama treba suncev sjaj
neki tropski raj, dje je sve haj
zato ne staj nego aj, nego aj
nego aj, aj
Tako mi treba da se izgubim
i od svega da se odmorim
Malo i djevojku da promjenim
pa nek' i mene neko odmjeni
Oooooo
Puno je posla bilo da odradim
trosim vise nego sto zaradim
idem da zajmim pare
zajmi i ti
i uzmi sve sto je potrebno
i pakuj se
i idemooo Ooo
i idemooo Ooo
Tropski bar pivo mi daj
pusti muziku i ne peglaj
tropski bar pivo mi daj
pusti muziku i ne prekidaj
Zato odosmo mi na pute daleke
dje nas cekaju vrh ribe neke
od kojih ti se pamet obrne
i to crne, koje piju djus,
12
ne nose stikle, ne nose brus
jer nisu navikle
idemo i briga nas sad
cekaju nas more, pivo i hlad
Treba negdje da se izgubim
i od svega da se odmorim
idem da zajmim pare
zajmi i ti
i uzmi sve sto je potrebno
i pakuj se
idemooo
Tropski bar...
SERGEJ ĆETKOVIĆ - NAZOVI ME
Intro(po 1 okidanje 4 akorda): Gm F Cm Gm
INTRO(4-4tinski ritam) x4: Gm x3 F Cm
Gm
Nocas me svi na tebe podsjete
Cm
Pogledima moju bol osjete
F Gm
Cutim,a znam da dijele nas dani
Mrzim sto svi za tebe pitaju
Sa usana tugu mi citaju
Eh da si tu kao nekad ko lani
Cm
Ne, nisam jak, slome me pitanja
Gm
Gdje li si sad, uzalud skitanja
Cm D E
Cutim, a znam, da sada smo saaamiii
Gm Cm
Nazovi me da si jos dobro to mi javi
F Cm
Ja nemam kud ti stalno si tu u mojoj glavi
Gm
Ko spas
Cm
Nazovi me bez tebe su dugi ovi dani
F Gm
jer kao lud jos zivim za nas
intro
Mrzim sto svi za tebe pitaju
Sa usana tugu mi citaju
Eh da si tu kao nekad ko lani
Ne nisam jak,slome me pitanja
Gdje li si sad, uzalud skitanja
Cutim,a znam da sada smo sami
13
Nazovi me da si jos dobro to mi javi
Ja nemam kud ti stalno si tu u mojoj glavi
Ko spas
Nazovi me bez tebe su dugi ovi dani
jer kao lud jos zivim za nas
prelaz: Am Dm G Dm
Am Dm G Am
Nazovi me da si jos dobro to mi javi
Ja nemam kud ti stalno si tu u mojoj glavi
Ko spas
Nazovi me bez tebe su dugi ovi dani
jer kao lud jos zivim za nas, za nas..
SERGEJ ĆETKOVIĆ - NEĆU DA ZNAM
Intro: Gm x4 Cm x2 D Gm
Gm
Opet radis protiv nas
Cm
Dovoljno je to sto poznajem tvoj glas
Gm
Sva zadrhtis dok mi pricas opet price
D Gm
Okolisas ali dobro znas da znam
Opet ljudi govore
Da sam takav samo zbog ljubomore
Znaju vise od mene tvoje prijateljice
opet prica pocinje
Cm
necu da znam tvoje ime ni kad cujem
Gm
jer svaki put samo se vise trujem
Cm D#
ostavi me da zivim najbolje sam
Cm
jer tako ja znam
intro
opet boga zamolim
da mi daj jos snage da te prebolim
al jos svijecu zapalim
i od vjetra zaklonim
kad na tebe pomislim
necu da znam tvoje ime ni kad cujem
jer svaki put samo se vise trujem
ostavi me da zivim kako ja znam
necu da znam dal si s drugim ili sama
jer svaki put pomislim o nama
ostavi me da zivim najbolje sam
jer tako ja znam
14
SERGEJ ĆETKOVIĆ :: POGLEDI U TAMI
F#m Hm
Gledas me kao da se znamo
E A C#
Stranca dva eto to smo samo
F#m Hm
Pricaj mi gdje si ti bila
dok lile su kise
D
nek' ova noc na tebe mirise
C#
zauvijek
F#m Hm
Gledam te, hodamo lagano
E A
osjecam kao da vec dugo
C#
mi se znamo
F#m
Ne zalim
Hm
Sve vec podsjeca na prosle dane
D
Ruke u hodu dodir blag
C# C#-let ring
Ti i ja
Refren:
F#m
A kada odu svi
Hm
Mi ostacemo sami
E
Samo ja i ti
A C#
i pogledi u tami
F#m
Reci mi da znam
Hm
da jutro nije blizu
E
da ima vremena
A C# C#
za poljupce u nizu
solo + akordi iz strofe
Gledam te
kroz ovu noc sto pada
Stranca dva,
pod svjetlima smo duso
ovog grada
Pricaj mi gdje si ti bila dok lile su kise
Nek' ovaj grad na tebe mirise
15
Zauvijek
Refren x2
SERGEJ ĆETKOVIĆ :: AKO TE NIJE PRONAŠLA LJUBAV
Bm F#
Noc jedina jos zna
G# Fm
Kad dodjem sam da me doceka
Bm F#
osmjeh njen koristi, al' znam
G# Fm F# F#add9
Da nisi tu, a ja umoran od svega sam...
Jer, bol ista je kod svih,
Kog' tuga ujede, tesko preboli...
Cutim s njom, da me ne cuju
sjene te sto na tebe sve me secaju
ref:
Fm-F Bm G# Fm F# G# Bm G#
Ako te nije pronasla ljubav, potrazi me, bicu k'o prije,
Fm F# G# Bm G#
na istom mjestu svu ljubav skricu od svih,
Fm F# G# F#
da nikada vise nikoga ne zavolim...
A ja isti sam ko svi...
kog' tuga ujede, tesko preboli...
Cutim sam, da me ne cuju
sjene te sto na tebe sve me sjecaju...
SERGEJ ĆETKOVIĆ :: PRSTEN NA STO
intro (razlaganje): Am F Dm Am7
Am F
Veceras si tu a kao da nisi,
Dm Am
hladna i njema, kao slika bez rama
Am F
Reci mi bar jednu rec, prije no sveca izgori,
E Am
reci mi sto se zbilo sa nama
Veceras si tu, sakrivas pogled prstima,
ja vidim da nema nas vise, da gubim te moja jedina
Reci bar jednu rijec, prije no srce izgori
Reci da mrzis me jer necu izdrzati
Refren(lagani ritam):
Am F
Udari lagano tijelom od tijela,
Dm Am7
nek usne zadrhte, ucini bar to...
E Am F
I kao da neces, i nisi htjela,
16
G7 C
da odlozis hladno prsten na sto...
E Am F
Ugasi svijecu, ne zelim da sija,
Dm Am7
hocu u mraku da opipam smijeh...
E Am F
Slazi me barem da tako ti prija,
Dm E Am
zaplaces li ucinicu grijeh
Veceras si tu, sakrivas pogled prstima,
ja vidim da nema nas vise, da gubim te moja jedina
Reci bar jednu rijec, prije no srce izgori
Reci da mrzis me jer necu izdrzati
refren
VITEŠKI PLES :: OSTAVIĆU RUŽE
intro x2: Am prazne, F prazne, G prazne, Am prazne stop
Am
Ja ne znam zasto zima je,
Am
i ko ce da me ugrije,
G F Am
u ovoj noci dok sam sam.
I uvijek kada odlazim,
suza mi oci orosi,
predugo bio sam ti drag.
Dm Am
Bolje da ostane, jos jedno lijepo sjecanje, na nas
Dm Am
tiho cu otici a tebi ostaviti sat.
Ti si me sve naucila,
i prvi put pogrijesila,
u meni krio se vrag.
Molicu da mi oprostis,
da nekom drugom poklonis,
sve sto sam imao ja.
Bolje da ostane, jos jedno lijepo sjecanje, na nas
tiho cu otici a tebi ostaviti sat.
refren x2:
Am
Ostavicu ruze,
F G C
ostavicu ruze na jastuku,
Am
ostavicu ruze,
F G Am
nek cijele noci tebi mirisu.
intro
sve strofe ponovo
17
TONI CETINSKI :: ONAJ KO TE LJUBI SREĆAN JE
Uvod:
e-----------------------------------------
h-----------------------------------------
g-----6-6-------9-9-------4-4---------6-6-
d-2/6-6-6--2/6--9-9--4br--4-4---------6-6-
a-----4-4-------7-7-------2-2--4br-4--4-4-
e-----------------------------------------
e-------------------------------
h-5/9~~-5/9~~---9-12b-----------
g------------------------8br--6-
d-------------------------------
a-------------------------------
e------------------------------

UVOD: C#m,E,H,C#m 2x
C#m x2
Obuci cu stare cipele
E x2
one znaju korak do tebe
H x1
da mi oci vezu s njima
F#m x1 C#m x1
naci cu te ja, jedina
Prevrnut' cu zemlju, gradove
sive ceste, vjetar, oblake
makar platio zivotom
naci cu te ja, jedina
H x2
Za mene jos vrijedi deset zapovijedi
C#m x1
nek' te nemam ja
H x2
zaljubljen sam bio samo jedno htio
G# x1 stop
da te ljubim zauvijek
Ref:
H
Onaj ko te ljubi srecan je
F#m C#m
neka je, neka je
C#m F#m
sa mnom ce se borit' za tebe
H C#m
kunem se, kunem se
H F#m
Spreman sam ti dati ovaj zivot cijeli
Cm#
pitaj njega je li
H
potuc' se sa svima
F#m C#m
18
a toliko srce pitaj ga dal' ima
intro:
Obuci cu stare cipele
one znaju korak do tebe
da mi oci vezu s njima
naci cu te ja, jedina
Za mene jos vrijedi deset zapovijedi
nek' te nemam ja
zaljubljen sam bio samo jedno htio
da te ljubim zauvijek
Ref., solo, refren,intro
TONI CETINSKI :: BLAGO ONOM TKO TE IMA
Intro klavijature: F B C F Dm B C F
B F B F
Tek sad vidim da te volim kad su kise pocele
Dm B Gm C
sve je tezi korak dalje, noge su mi umorne
B F B F
Ja sam jedro u oluji ,oko mene valovi
Dm B
i tko da ovo vrijeme smiri
Gm C
kad kraj mene nisi ti
Dm
Blago onom tko te ima
B
tko te ljubi
C F
dok ja lutam nocima 2x
C Dm
blago onom tko te ljubi
B C F
neka bude bolji covjek nego ja
B F B F
Sto me ceka iza magle, sunce ili oblaci
Dm B Gm C
To mi vise nije vazno, kad tu neces biti ti

refren
DIREKTORI - MI VOLIMO PIVO
UVOD x6
1.gitara
E-------------------------------
H-------------------------------
G-------------------------------
D-------------------------2-----
A-----2-----3-----5-------------
E-3-3----3-3--3-3----3-3--------
19
2.gitara
e----------------------------
h----------------------------
g-----4------5------7------9-
d-x-x-4--x-x-5--x-x-7--x-x-9-
a-x-x-2--x-x-3--x-x-5--x-x-7-
e----------------------------
G C D C
Kada pijem pivo ponosito stojim
Posle sedme flase prestajem da brojim
Lekar mi je reko da prestanem da pijem
D (1 okidanje)
Al nisam mogo da se smirim poceh da ga bijem
Picu pivo i na nebu jer to je divota
Bicu veran pivu da kraja zivota
Sveti petre eto mene skoro cu ti doci
Sidji dole sacekaj me peske necu moci
Prelaz x2:
G
Jetra mi je propala
Imam cir na crevu
D
Kamen je u bubregu
G F G
Jebem li mu kevu
Solo:
E----------------------------------------------------------
H---------------------------------------------------5------
G-------------------------------------------4-5-7-7---7-5--
D-----------------------2-----5-5-7-5-5-5-7----------------
A---------------2-3-5-5---5-3------------------------------
E-3-3-5-3-3-3-5--------------------------------------------
E----------------------------------------------------------
H---------------------5---------------------------5--------
G-------------5-4-5-7---7-5----7-7-5-5-4-4-5-5--7---7-5-4--
D-5-5-4-4-7-7--------------------------------------------5-
A----------------------------------------------------------
E----------------------------------------------------------
U ekipi mojoj isti dripci kao ja
Prodali bi kevu za gajbu piva
Pamet ce izgubiti u jecmu i u hmelju
Ali ipak oni slozno pevaju
Refren x2:
H C
Mi volimo pivo
A H
Mi volimo pivo
H C
Mi volimo pivo
H H A A G
I pivo voli nas
Mi volimo pivo.
20
Mali prelaz:
E-------------------------
H-------------------------
G-------------x-x-7-7-x-7-
D----------0--x-x-7-7-x-7-
A---3-2-------x-x-5-5-x-5-
E-3------3----------------
Uvod
Prelaz x2
U ekipi mojoj.
Refren x1
Mi volimo pivo x3
H A G
I pivo voli nas
A H G
I pivo voli nas
I pivo voli nas
Refren x1
Prelaz
PLAVI ORKESTAR :: AKO SU TO SAMO BILE LAŽI
A Hm
Zivot ide dalje,zivot brzo prolazi
D A E
ali osjecam da,to vise nisi ti a ni ja.
A Hm
Mozda bi i mogli pokusati ponovo
D A E
al bojim se da ovaj put gotovo.
Hm D E
Jer samo ti mi ubrzavas disanje,
Hm D E
jer se ja jos uvijek palim za tebe.
A Hm E D A E
Ako su to samo bile lazi,lazimo se bar jos malo.
A Hm E D A E
Ako su to samo bile varke,varajmo se varajmo.
A Hm
Zivot ide dalje,zivot brzo prolazi,
D A E
al osjecam da to vise nisi ti,a ni ja.
A Hm
Ljubavi i mrznje,tezko je preskociti zid,
D A E
al borim se,da,dobar smo par bili mi.
Hm D E
Jer samo ti mi ubrzavas disanje,
21
Hm D E
jer se ja jos uvijek palim za tebe.
Ako su to samo bile lazi..
solo
Jer samo ti mi ubrzavas..
Ako su to samo bile lazi..2x
pa pa pa ra pa pa pa ra..
OLIVER DRAGOJEVIĆ :: U LJUBAV VJERE NEMAM
Intro: B, G, Es, F, B, F7
E---6----6----6-----6---
H-3--3-4--4-6---6-4---4-
B
dusu sam potrosio, zbog toga ne zalim
g Es
sve sam svoje prosao,bezbroj precica do sna
F
bezbroj slijepih ulica...
srce se umorilo i ne znam sta cu s njim
u sta sam se pretvorio
sretan ili nesretan ja samo jedno znam
B F g d
nju da sam zenio, ne bih tako uvenuo
Es F B F7
starim ja a u ljubav vjere nemam
B F g d
svoju djecu sam sanjao, njenim ih imenom nazvao
Es F g
starim ja, a u ljubav vjere nemam
Es F B
starim ja, a u ljubav vjere nemam
intro
YU GRUPA :: ODLAZIM
Uvod x2: /Am/ /G D/ /Am x2/
Am G D Am
Probudi me sunce kroz prozore prljave, musave
Am G D Am
Oblacim se zurno, kafu pijem, nestajem
Am G D Am
Trljam oci sanjive da mi ne bi zaspale
Am G D Am
Vrata guram nervozno, ptice gledam slobodne
22
Ref:
C5 F5
Odlazim dok jos drugi spavaju
C5 F5 D5 D5 D5 D5 D5
Koraci plocnikom odzvanjaju
Am G D Am
Osvrcem se okolo, gledam puste ulice
Am G D Am
Krecem stazom poznatom, pustam misli slobodne
Refren:
Prelaz:
B5 F5 C5
Na obali zacaran ja sanjarim
B5 F5 C5 D5 D5 D5 D5 D5
Kao ladje velike tad otplovim
Refren:
YU GRUPA :: BLOK
Intro:
C D E
E----------------------------------------------------0-0----0-
H--6-5--6-5----8-7--8-7------------------------------0-0----0-
G--5-5--5-5----7-7--7-7------------9--XX-9-----------1-1----1-
D--5-5--5-5----7-7--7-7------------9--XX-9------------------2-
A----------------------------5-7---7--XX-7--------2-----------
E------------------------5h7----------------3b(4)-0-----------
Strofa:
H5 D5 C#aug
E-----------------------------------------
H-----------------------------3-----------
G---------XX--4---------------2-----------
D---------XX--4------------0--0--------7--
A----0h2--XX--2---------0h2------------4--
E-0h2-------------------------------------
H5
Ona prodje brzo najbrze
D5 C#aug
A noge strasno duge one najduze
H5 D5 C#aug
Vesto se igra ljudima i napravi lako lom u grudima
Refren:
F#m7(F5)
Pitam se gde je granica
A E
Kad iz moga kresne varnica
F#m7
Kad se pali dusa plamena
A E
Nisam ja od kamena
Oko njeno kao zaseda
Upadam u zamku kad ne pogledam
23
Krene zemljotres kad se pojavi
I dlanovi postanu brzo znojavi
Refren
Prva strofa ponovo
Refren
Prelaz:
G D
Kad se sve na mesto postavi
G D
Slatka bista smela moras biti ti
G D
Neko bi ti dobro dosao
G E A
Ali ja sam to davno prosao
Oko njeno kao zaseda
Upadam u zamku kad ne pogledam
Krene zemljotres kad se pojavi
I dlanovi postanu brzo znojavi
refren
Uvod x4
YU GRUPA :: OD ZLATA JABUKA
intro: Hm A E A x3 + solo
Hm A E Hm
Uvodni solo:
e-----------------------------------------------------
h-----------------------------------------------------
g--5-7-5-5--5-7----5----------------------------------
d----------8------8----7-5--5------5---5---5-7-8-7-8--
a----------------------------------------8------------
e-----------------------------------------------------
e------------------------------------------
h------------------------------------------
g--5-7-5-5--5-7----5-----------------------
d----------8------8----7-5¬5~---5---5------
a-------------------------------------8-8~-
e------------------------------------------
[Hm]cudne se [A]stvari s nama [E]zbiva[A]ju
[Hm]oci ti [A]silne lazi [E]skriva[A]ju
[Hm]za druge [A]mi smo vrlo [E]srtan [A]par
[Hm]gluma i [A]daje svemu [E]pravu [Hm]car
ti imas neku vrlo cudno moc
zbog tebe ja ne spavam celu noc
cekam trentak kad ces opet doci
da me izlude tvoje plave oci
[D]ti si da[G]ljina sto me [A]odvla[G]ci
[D]carobnjak [A]sto mi razum [Em]pomraci
[D]kada si [G]sa mnom ja sam [A]opci[G]njen
24
[D]od jedne [A]reci ja se [Em]opi[Hm]jem
Refren x2:
[A]moja [Hm]si [E]od zlata [G]jabuka
[A]moja [Hm]si o da [E] [G]
[A]moja [Hm]si [E]od zlata [G]jabuka
[A]moja [Hm]si...

ti si daljina...
refren x2
intro x2
YU GRUPA - SAMA
UVOD x2:
--------------------------------------------------------------
--8h-10-10---10b---------8------------------------------------
-------------------7h-9-----7~------5-7-9----------7----------
-------------------------------10~----------10-10--------7-7~-
-----------------------------------------------------10-------
--------------------------------------------------------------
--------------------------------------------------------------
--------------------------------------------------------------
----7--7-7------10-9--7-----------10-9--7-----7---------------
-10---------10----------10-10~--------------10---9------7--7~-
----------------------------------------------------10--------
--------------------------------------------------------------
--------------------------------------------------------------
--8h-10-10---10b---------8------------------------------------
-------------------7h-9-----7~------5-7-9----------7----------
-------------------------------10~----------10-10--------7-7~-
-----------------------------------------------------10-------
--------------------------------------------------------------
--------------------------------------------------------------
--------------------------------------------------------------
----7--7-7------10-9--7-----------10-9--7-----7---------------
-10---------10----------10-10~--------------10---9------7--7~-
----------------------------------------------------10--------
--------------------------------------------------------------
-------------------10br--8------------------------------------
--8h-10--10-10--8-----------10~-------------------------------
---------------------------------5-7-9---------7--------------
----------------------------------------10-10--------7-7~-----
--------------------------------------------------10----------
--------------------------------------------------------------
---------------------------------|----------------------------
---------------------------------|----------------------------
-----7------7---9b---------------|----------------------------
--10-----10---------10--7h-9-10--|----------------------------
---------------------------------|-8-7-5h-7-5---5-------------
---------------------------------|------------8---7--3--5--5~-
A5 G5 F5 E5
Vetar ti kosu nosi,sunce ti oci sklapa
25
C5 D5 A5
Ti sanjas o,oo meni
Ruke mi pruzas a,aa prazno,
nebo grlis
Sa zeljom da sam to ja,
pesma te moja budi
Ti places sama,jer mene nema,
ti sama
Uvod x2
Prva strofa ponovo
Nanana + akordi iz strofe
YU GRUPA :: KOME SE RADUJES
A5/H x222xx
intro: H5 A5/H 2x
e-----------------------------------
h-----------------------------------
g---4-------2-2-----4-------2-------
d¬-4¬4----2--------4--4-------2-----
a-2-----2---------2-------2-----2---
e-----------------------------------
H5 A5/H H5 A5/H intro
Daj jos jednu da me razbije
H5 A5/H H5 A5/H intro
Bolan prevaru da napijem
E
Pa da te zaboravim
A intro x2
Zauvek dok se ne probudim
Cije ruke nocas miluje
Kosa sto na tudjem krilu je
Ko mi krade najdraze
Ko sa tobom caruje
F# C#5 D#5 E F#
Ko mi nocas kraj tebe noz u srce daruje
ref:
A E H
Kome se radujes
A E H
Ko zmija uvijas
A E H
S kim me sahranjujes
A E H
Jed-ini san mi ubijas
Cije ruke nocas miluje
Kosa sto na tudjem krilu je
Ko mi krade najdraze
Ko sa tobom caruje
Ko mi nocas kraj tebe noz u srce daruje
ref x2:
Kome se radujes
Ko zmija uvijas
26
S kim me sahranjujes
A E H5 A5/H
Jedini san mi ubijas x2
YU GRUPA :: KAO MORNAR
intro: E5 denfovano (E5: xx245x)
E A H E
Drugovi su odmah rekli nije za tebe
A H E
izbij je iz glave idi negdje napij se
A H E
rekli su mi da si strasnija od satane
A H E
ipak su te znali mnogo bolje od mene.
A G# H E
A mrzeo sam svakog ko te nije voleo
A G# H prelaz: H C# D#
ruzan glas o tebi me je boleo
ref:
E H A E prelaz: E F# G#
Kao mornar dobro more sanjao sam te
A H E prelaz: H C# D#
al' je neko slao talase
H A E prelaz: E F# G#
kao zedna zemlja kisu cekao sam te
A H E
to su bile susne godine
intro:
Drugovi su odmah rekli nije za tebe
izbij je iz glave idi negdje napij se
Opijeno srce ludo je za savete
ipak su te znali mnogo bolje od mene
mrzeo sam svakog ko te nije voleo
ruzan glas o tebi me je boleo
ref:
solo(pratnja akordi iz ref):
ref x2:
YU GRUPA :: DUNAV
Uvod: /C //F //C //Am G/
(1.strofa)
C F C F
Dunave , moj Dunave , kakve mi vesti vode donose,
C F G F C G
Jesam li , jesam li jos uvek , sam bez ikoga ,pusta obala.
(2.strofa)
Dunave, moj Dunave, pratis li moje cudne puteve,
27
Tu gde ja gledam jato ptica, nema obala, nema nikoga.
F C G F C G
Samo jaaaaaaaaaaaa aaaaaaaaaa
(1.strofa ponovo)
F C G F C G
Napustenaaaaaaaaaaaaa aaaaaaaaaa
G C
Nek' nas sada ptice povedu,
G F C
Svojim letom, pesmom uzdignu,
G C
Svetli nebo iznad nas,
F C
oba puta srece glas,
B F
Ljubav to je svet,
C G g-denf
Ljubav bas je sve.
YU GRUPA :: DUNAVOM JOS SIBAJU VETROVI
Uvod x2: G D G Em, D G
G D Am Em
E--10-7----10-7------------10-7--------------------------
H------10------10-8-7----------10-8-7-8-8/10-7----7-8-8--
G--------------------9-7-7--------------------9-9--------
D--------------------------------------------------------
A--------------------------------------------------------
E--------------------------------------------------------
E--10-7----10-7------------10-7------------------
H------10------10-8-7----------10-8-7-8-10-7-----
G--------------------9-7-7-------------------9---
D------------------------------------------------
A------------------------------------------------
E------------------------------------------------
Razlaganje:
Em D Am Em
Stari grad brije kosava
Em D Am Em
lisce pokriva sve
Em D Am Em
prazan kej i golo drvece
Em D Am Em D G
sve je kao i pre
refren x2:
G D Am Em D G
Dunavom jos sibaju vetrovi
G D Am Em
ali smo mi suprotni svetovi
Jesen je, na tebe secam se
al neko drugi je mlad
gde li si, prva ljubavi
i kako izgledas sad ?
28
Uvod x4
YU GRUPA :: ČUDNA ŠUMA
Uvod:
E--------------------------------------------------------
H-------------------------------------------------5/7-7--
G------------------4/6-6-----9-8-6-¬9-8-6--9-8-6---------
D-----6---8---9------------------------------------------
A--4-4-4-4-4-4-4-4-------4-4-----------------------------
E--------------------------------------------------------
E-----------------------------------------
H-----------------------------------------
G------------------4/6-6------------------
D-----6---8---9----------444444444444444--
A--4-4-4-4-4-4-4-4-------222222222222222--
E-----------------------------------------
Rock riffovi: C# H F# E C#
Jednog toplog dana usred guste sume
medved ispi med i sok
uhvati za sovu, s njom poce igrati rok
Oko njih se brzo sakupise drugi
druzina je sumska sva
s medvedom i oni zaigrase dva po dva
Tresla se zemlja celi dan
ne zna s kim igra ko
dodje tigar zvani Kan
sudna suma je to
Na pecurki jedno bubamara igra
partner joj je obad ljut
ona mu se zali kako plese prvi put
slonica je opet uhvatila misa
pa se vrti s njim u krug
misica sa slonom postade sad najbolji drug
Oko jednog panja lija zeca juri
moli ga za igru tu
zec se neda, zeli kozu svoju citavu svu
ljubomorna mecka sto joj muz sa sovom
igra ovaj ljuti rok
hoce da se napije pa ispija medni sok
YU GRUPA :: DUGO ZNAMO SE
Intro:
Am G F B Am
e-----------------------------------------------------------|
B-----------------------------------------------------------|
G-----------------------------------------------------------|x2
D-----------------------------------------------------------|
A-0-2-3-2-0-------------------------------------------------|
E-----------3-0----0-3-3s5-3-3----3-0-3-3s5-3-3-1-1-0-3-1-0-|
29
G Am
Dugo znamo se
G
Spajaju nas godine
F B Am
Spajaju nas tajne sto su dugo cuvane
G Am
Dugo znamo se
G
A k'o da juce bilo je
F B Am
Zajednicki snovi sto su davno nestali
Refren:
G C
Kad pomislim,
G Am
na tebe ti to znas
C
I osmehom,
G E5-G5
odgovaras
Dm G C F
Nije vazno gde smo,nista ne menja
Dm G C
Ti i ja smo izvan vremena
Intro
G Am
Dugo znamo se
G
Reci nisu potrebne
F B Am
One su pretvorile nas san u secanje

G Am
Dugo znamo se
G
A k'o da juce bilo je
F B Am
Zajednicki snovi sto su davno nestali
Refren
Intro
YU GRUPA :: GLEDAJ SAMO PRAVO
Uvod:
AI---0--3----5-----
EI-----------------
Dm
Gledaj samo pravo cuvaj castan kraj
Gledaj samo pravo srce ne menjaj
F G Dm
Kroz opasno doba prolaze
F G Dm
30
Ljude ko travke pregaze
Pevaj samo pravo mesecina je
Pevaj samo pravo mesecina je
Prati me stalno trazi me
Ako je gledas i tebe ce
Gledaj samo pravo imam poznat lik
samo pravo nista ne misli
Na ljutu ranu ne podseti
Osvetli lice pa udari
PARNI VALJAK :: IVANA
D7/9: xx0210
Uvod x4: G Am7 G D7/9
G Am7 G D7/9
Nista tako ugodno nije kao
G Am7 G D7/9
kad se smije Ivana.
G Am7 G D7/9
I niceg ljepsega oku nema
G Am7 G D7/9
Od bljeska njenih bisera. Ona
G Am7 G D7/9
ona drugog ljubi,
G Am7 G D7/9
Drugom pripada,
G Am7 G D7/9
Ona drugog ljubi,
C D
Mene ne gleda.
G Am7 G D7/9 x4
G Am7 G D7/9
Ni samo more duboko nije kao
G Am7 G D7/9
Kao njena oka dva.
G Am7 G D7/9
Ej , sto dao da u nekom kutu
G Am7 G D7/9
Tog pogleda budem ja. Ona...
G Am7 G D7/9
ona drugog ljubi,
G Am7 G D7/9
Drugom pripada,
ona drugog ljubi,
C D G Am7
Mene ne gleda.
C D
Mene ne gleda.
Solo + pratnja G Am7 G D7/9 x8
31
Refren x2
Uuuuu + Akordi iz uvoda x4
ORTODOX CELTS :: DRINKING SONG
Em
The clock started noon,
I jumped out of bed,
G
I drank a cup of coffee
And I walked out to the street.
Em
It was a boring sunny day,
I was lookin' for some fun,
H
I tried to find someone
Em
So I walked into a pub.
There was Lucky playin' banjo,
On accordion was Jake,
G
We drank some beer and whiskey
And pint of good old Celtic gin.
Em
It was derby on TV,
On Parkhead was a crowd,
C D
We started watchin' game
G
With hope that our Celts would win.
G
We are drinkin' beer,
C G
We are drinkin' gin,
C G
No matter what's in bottle
D G
We are drinkin' everything.
Then we took a short walk through the dirty streets,
And came back to the pub, for the game of darts,
Celtic beat the rangers, all the people sang & cheered,
We broke some bloody glasses, we were little bit of weird
That was ordinarily day in our smelly town,
We felt the smell of petrol and the dust between the toes,
Our eyes were chilly sparkled like a jewels in the crown,
Our hearts are always fill, doesn't matter where we go.
Refren
NEVERNE BEBE :: BALKAN JUŽNO OD SREĆE!
Intro: F, Am7, Dm
F Am7 Dm
32
Svetlost u zoru siri krila
posvuda tvoja ma gde bila
greh ko staklo dusu slama
bole oci puca glava.
Upali svece neka dodju
sve sto mislim nemam kome
budu srece onda prodju
i kom cu Bogu kad me slome.
Bb F Dm
Gde god krenem put me vodi
Bb F Dm
na ovaj Balkan juzno od srece
Bb F Dm
da nadjem te i da te rodim
F Am7 Dm
zar tako malo ,malo me nece.
Upali svece neka dodju
sve sto mislim nemam kome
za sve dane koji prodju
za ciju srecu kad me slome.
Gde god krenem put me vodi
na ovaj Balkan juzno od srece
da nadjem te i da te rodim
zar tako malo ,malo me nece.
Bb F C Dm
la-la-la-oo
Bb F C Dm
la-la-la-oo ...
NEVERNE BEBE :: KIŠA
Asus4: x02230
Asus2: x02200
u pesmi mogu da se umesto akorda sviraju riffovi
Intro:F#m , D Hm (4 puta)
Asus2 F C G
Sve godine koje imam,menjam ih za noc na zemlji
Asus2 F C G
Gde god krenem vidim samo,crno beli svet oko sebe
Asus4 F Asus4 F
Napisacu knjigu,napusticu grad u kome
Asus4 F C G
Ostaju stranci i niko ko mi znaci
Ref:Asus4 F C
Volim ga volim nju volim sve osim tebe
G
Ti nosis kisu
Asus4 F C
Ovaj grad volim ga ali dalje cu bez tebe
G
33
Neznam gde i s'kim cu
F#m D Hm(4 puta)
Asus4 F C G Asus4
Gde su ulice,nase stvarnosti
F C G Asus4
Srecne godine,bez svih bolesti
Asus4 F Asus4 F
Napisacu knjigu,napusticu grad u kome
Asus4 F C G
Ostaju stranci i niko ko mi znaci
Refren
F#m D Hm(8 puta)
Asus4 F C G Asus4 Asus4
Ja hocu da se menjam,ja hocu sve da menjam
F C G
Ima li vremena....
Ref x2(modulacija):
Dm B F
Volim ga volim nju volim sve osim tebe
C
Ti nosis kisu
Dm B F
Ovaj grad volim ga ali dalje cu bez tebe
C
Neznam gde i s'kim cu

Outro: G-F#m-Em
NEVERNE BEBE - DA IMA NAS
INTRO: A E H C#m uuuuaaaa
A E H E 4X
e|---------------9-----------------------|
H|-9h10--12--12---12~-----------------9--|
G|--------------------11-9-11-11-11-9----|
D|---------------------------------------|
A|---------------------------------------|
E|---------------------------------------|
e|---------------9------------------------------|
H|-9h10---12--12---12-9--------------------9----|
G|----------------------11-9-11-9-11-11-11------|
D|-------------------------------------------11-|
A|----------------------------------------------|
E|----------------------------------------------|

A E H C#m
Korak iznad duge tanka linija
opet svoje misli govorim na glas
koliko cu puta oterati strah
samo da si tu i da ima nas...
34
INTRO 1X
Veca sam od snova korak ili dva
koliko je samo kilometara
pravim te od svega sto mi neko da
nek nam dobar vetar snove pogura
Pogledaj u sunce iznad oblaka
to sto tamo vidis, to smo ti i ja
Pogledaj u nebo pogledaj u san
to se zove ljubav, to smo ti i ja
INTRO 1X
Opet mi o svemu pricaj na sav glas
ponekad o sreci, da li ima nas
sve dane boje kupicu,
bas sve reci sto se nikad ne cuju,
sve grane sto nam dusu spajaju
H
toliko te volim
A H
samo da si tu...
LAKI PINGVINI :: POKRENI ME
Intro x4: C# F#m - brzi 4-4tinski sa medjuistrzajima
F#m C#
Nemirno moje hajdemo, zajedno da se igramo,
C# F#m
sta da ti pricam kad sve znas, ti nisi tako mala bas,
F#m E A
nestasno ti oko tvoje, godine se nezne boje,
A E C#-stop
andjele i slatke gade, gledaj ruke sta mi rade.
Bridge: x2
C# F#m
Hej malena pokreni me, ko jabuku pojedi me,
F#m C# F#m
hej malena probudi me, hajde igrajmo.
Intro:
Ref: x2
C#
Ne mogu da da da da se porede, sladoled, slag od jagode,
F#m
sa tvojim slatkim snovima, nestasna i nemirna,
C# F#m
znas da sad je pravi cas, noc ko stvorena za nas, samo za nas.
Celi tekst ponovo od pocetka
GENERACIJA " :: DOLAZIM ZA " MINUTA
35
figure 1:intro solo
-8-10-11-10h11p10-8-10-8h10p8-6-8-6h8p6--6----------------]
----------------------------------------8--8^6¬6b8-4-6-8~-]
----------------------------------------------------------]
----------------------------------------------------------]
----------------------------------------------------------]
----------------------------------------------------------]
figure 3: verse
----------------------------------------------
----------------------------------------------
--------------5--X2--------------3-1-0--------x2
---5----5---5----------3---3---3-------3-1-0--
-3----3---3----------1---1---1----------------
----------------------------------------------
figure 4: fill 1
-----------]-------------
-----------]-------------
------etc..]-------------
-----------]-------------
--5-5-5-5--]----1--------
--3-3-3-3--]-1-3--3------
-----------]-------------
C5
Dolazim za pet minuta,
A#5
nemoj da bezis,ne budi dete.
F5
Samo cu skociti preko puta
G#5 A#5 C5 -fill 1(figure 4)
da kupim pice i cigarete.
Dolazim za 5 minuta,
evo ti novine, nesto potrazi
ploce su tamo u vreloj sobi,
ja trcim dole, sama se snadji.(figure 5)
figure 5: fill 2
G#5 A#5 G5
e-8-10-11-10-8--10-8-6-----
h----------------------8~--
ref x2:
C5
Neboj se, necu ti nista
A#5
treba mi, rame za plakanje.
C5
Treba mi, skloniste od muke,
C5 A#5 A# A# C5
treba mi muzika i stisak ruke.
Figura 3
Prva strofa
Druga strofa
Figura5
Refren x2
36
Solo:
e-11-10-11-8---11-10-11-8~-8-10-11-10-8¬10~-8-6
h-----------8----------------------------------
e-8~-6--6-8~-----11-10-11-8---
h------8-------------------8~-
e-11-10-11-8~--8-10-11-10h11p10-8-10-8h10p8-6-8-6h8p6--6---]
h----------------------------------------------------8--8^6]
e---------------
h--¬6b8-4-6-8~-]
refren x2
GENERACIJA " :: PSETO
intro: A G#m F#m E 2x
A G#m F#m E
Na pustom drumu u praskozorje
A G#m F#m E
neko je zureci u novi dan
A G#m F#m E
zgazio skitnicu bez pedigrea
F#m H F#m E
ulubivsi malcice blatobran.
H7
Zatim je mirno krenuo dalje
E
sta ce mu sudbina zgazenog pseta
H7
on ima mnogo svojih problema
A G#m F#m E
a ta zivotinja samo mu smeta.
ref: 2x
A E
Da li ce zakociti neko
A E
na drumu lezi zgazen pas
A G#m F#m E
svi ce proci on ce ostati
F#m H7 E
daleko negde iza nas.
Zatim je mirno krenuo dalje
sta ce mu sudbina zgazenog pseta
on ima mnogo svojih problema
a ta zivotinja samo mu smeta.
ref 2x
daleko negde iza nas... 4x
GENERACIJA " - POVEDI ME U NOĆ
37

Intro: E H-A-G#m A H-C#m-H
E H-A-G#m A G#m-H
Intro 2: C#m H/C# 2x
C#m H A
Tamno je nebo zemlju pokrilo
E G#m7 C#m
Jesen je sumorna tu
C#m H A
Negde u meni dalekih obala
E G#m C#m
I vetrova severnih zvuk
C#m H A
Slusam svemir kako govori
E G#m C#m
Nebo nije za nas
C#m H A
Tvoje mi ruke salju bogovi
E H A
Do mene tvoj dopire glas
ref:
E G#m7 A H
Povedi me u noc, i ostani u snu
E G#m7 A H
Oprosti mi za sve, i budi sa mnom tu
C#m G#m7 A E
Kisu s oblaka prolio bih svu
F#m G#m A H
Zaboravi na sve i budi samnom tu
C#m G#m7 A E
Kisu s oblaka prolio bih svu
F#m G#m A H Hsus4 Hsus6 E
Zaboravi na sve i budi sa mnom tu
Hej, je, je...
Umoran trag u dugim nocima
Na tebi prepoznajem
Verujem samo tvojim ocima
Tebi se predajem
Hej, je, je...
kraj: E H-A-G#m E

GENERACIJA " :: NAJJACI OSTAJU
Intro:
a-3s5-5-5---5s8-8-8--3-3s5
e-1s3-3-3---3s6-6-6--1-1s3
a-5s7-7-7---7s10-10-10--3-5
e-3s5-5-5---5s8--8--8---1-3
INTRO JEDANPUT pa pusti let ring
intro x2
38
razlaganje:
--------------------3-----|--------3-----------3-----|
--------3-----6-3-----3---|-----1-----1--------------|
----------4---------------|-----------------0-----0--|
-----5--------------------|--3-----------2-----------|
--5-----------------------|--------------------------|
--------------------------|--------------------------|
G
Kao ptice let slobodan,
F C intro
tvoj se celi svet okrenuo za jedan dan.
Sada dobro znas, bio si mlad,
tvoj se kratak let pretvorio u pad. intro
B5/C5
Sad ti treba bolje,
treba snage volje,
F5/G5
da se opet sebi vratis,
B5/C5
ponovo da shvatis,
B5/C5 D5 C B A G F E
da mozes biti jak.
Prelaz:
-------8-------------8-11-8--------8-11-14-11-8¬11\--
-----7---10-7---7-10--------10¬10--------------------
---7-------------------------------------------------
-7---------------------------------------------------
-----------------------------------------------------
-----------------------------------------------------
----------------------------------|--------------------------------|
----------------------------------|--------------------------------|
----------5-----------------------|----------5---------------------|
--8-5-------5-----8-5---------5---|--8-5-------5-----8-5-----5~----|
------5-5-----5-5-----5-5-8-5---5-|------5-5-----5-5-----8-5-------|
----------------------------------|--------------------------------|
----------------------------------|--------------------------------|
----------------------------------|--------------------------------|
----------5-----------------------|----------5---------------------|
--8-5-------5-----8-5---------5---|--8-5-------5-----8-5-----5~----|
------5-5-----5-5-----5-5-8-5---5-|------5-5-----5-5-----8-5-------|
----------------------------------|--------------------------------|
G B C G
Najjaci samo ostaju nikad se ne predaju,
G F C F G
svome Bogu veruju, svima prkose.
G B C G
Najjaci ostaju nikad da se ne daju.
G F C F G
Najjaci samo veruju u zakon pobede.
Solo:
-------------------------------|
-----------------------4---5---|
----------4-----5--------------|
39
----4-5-7----------------------|
--7---------7-7----7-7---------|
-------------------------------|
---------------------------------------------------|
----------------4---5----5-5-4-4-------------------|
----------4----------------------5-5-4-4-----------|
----4-5-7--------------------------------7-7-5-5---|
--7---------7-7--------x-------------------------7-|
---------------------------------------------------|
-------------------------------|----------------------------------|
-----------------------4---5---|--------------------5-------------|
----------4-----5--------------|----------4-----5-------7---5---4-|
----4-5-7----------------------|----4-5-7-------------------------|
--7---------7-7----7-7---------|--7---------7-7-------------------|
-------------------------------|----------------------------------|
--------------------------------|----------------------------------|
----------5-----6~------4---5---|----------5-----6~--5-------------|
----4-5-7-----------------------|----4-5-7-------------7-5-4-------|
--7---------7-7-----7-7---------|--7---------7-7-------------7-5-4-|
--------------------------------|----------------------------------|
--------------------------------|----------------------------------|
Intro x2
-------------------------------|-----||
-----------------------4---5---|-----||
----------4-----5--------------|-----||
----4-5-7----------------------|-----||
--7---------7-7----7-7---------|-----||
-------------------------------|-----||
Ceo tekst ponovo otpocetka
GENERACIJA " :: RITAM DODIRA
Uvod: Klavijature
E|----------------------|---------------------|----------------------|
H|----------------------|------3--------------|----------------------|
G|-------4--------2--4--|-----------4--2------|-------4--------2--4--|
D|----------------------|---------------------|----------------------|
A|--2-------------------|---------------------|----------------------|
E|----------------------|---------------------|--3-------------------|
---------------------|----------------------|----------------------|
------3--------------|----------------------|------3---------------|
-----------4--2------|-------4--------2--4--|-----------4--2----2--|
---------------------|----------------------|----------------------|
---------------------|--0-------------------|----------------------|
---------------------|----------------------|----------------------|
--------------------|
--------------------|
----4--4------------|
--------------------|
--------------------|
--------------------|
Uvod: Dio sa gitarom
40
E|------------------------|---------------------|------------------------|
H|---------------------3--|---------------------|---------------------5--|
G|-------4----4--2--4--2--|------4----2--4------|-------4----4--2--4--4--|
D|-------4----4--2--4-----|------4----2--4------|-------4----4--2--4-----|
A|--2---------------------|---------------------|--2---------------------|
E|------------------------|---------------------|------------------------|
---------------------|------------------------|----------------------|
------3--------------|---------------------3--|----------------------|
------2----4--2------|-------4----4--2--4--2--|------4----2--4----2--|
-----------4--2------|-------4----4--2--4-----|------4----2--4----2--|
---------------------|--2---------------------|----------------------|
---------------------|------------------------|----------------------|
----------------------|--------------------|
----------------------|--------------------|
----4--4----4------2--|----4--4------------|
----4--4----4------2--|----4--4------------|
----------------------|--------------------|
----------------------|--------------------|
(*akordi ili riffovi)
Hm A E
Tvoje telo mirise na dodir
Hm A E
u tvojim bedrima je vlast
Hm A E
komad koze u ostrim zubima
Hm(2 istrzaja pa stop) A E
na vlaznim usnama strast!!!
Hm A E
Nocas si zedna kao pustinja
Hm A E
prikradas se kao zver
Hm A E
i bljesak noza u ocima
Hm(2 istrzaja pa stop) F#--istrzavaj dugo
kradljivac krenuo po plen ooooooo
G E
...igra ANDJELA I DJAVOLA.....
Refren (riffovi):
Hm
Ritam tvoga dodira
G
gori mojim venama
A
ritam tvojih pokreta
Hm A Hm
radja me i ubija
Ritam tvoga dodira
struji mojim zilama
ritam tvojih pokreta
ubija, ne oprasta
prelaz (akordi kao za strofu)
ceo tekst ponovo
41
#AMILIJA :: MALA MALA
Intro:Am brzo 4-4tinski ili unza-unza
Am
Ja sam srecan sto postijim mene ljubav kupuje
treba samo malo volje da se covek raduje
Dm
jako srce, dobra dusa niko drugi da se slusa
E
stara ljubav iza osta svega nam je vala dosta.
Intro
Nemoj reci da se plasis, ko se plasi propada
ako svoju srecu trazis ona s'neba ne pada
moras ti po nju da dodjes mnogo toga sam da prodjes
soba nam je otkljucana bice nama bojih dana.
Am
Mala, mala, mala grupa pedera
C
dugo nam je vala smetala
Am
mala, mala, mala ,mala mi je dala
E
soba nam je mala ali kuca velika.
Prelaz akordi iz strofe
opet prva strofa
ref. 2x
solo-akordi iz refrena
ref. 2x
outro.
#AMILIJA :: PARANOJA
Intro:
e----------------------------------|
B--2-2-3-2-2-5-2-2-3-2-2-5-2-2-3-2-|
G--2-2-2-2-2-2-2-2-2-2-2-2-2-2-2-2-| (x4)
D----------------------------------|
A----------------------------------|
E----------------------------------|
Ritam ska + 4-4tinski: A F#m
A
Neke cudne stvari meni prolaze kroz glavu
F#m
Ja se cesto pitam da li umem da li sam u pravu
A
Da li vidim, da li cujem, da li osecam i da li,
F#m
Da li verujem u ljude i da li ljude dobro znam
A F#m
Pa pa pa pa
42
A
I ponekad kao da me cudi kakvi mogu biti ljudi
F#m
Ponekad je tesko biti istina
A
Istina ponekad voli, istina ponekad boli
F#m
Ponekad je tesko biti istina
A F#m
Pa pa pa pa

Ref x2:
A Hm
Pa pa paranoja
A
Pa pa paranoja
Hm
Dovidjenja lepa moja
F#m x2 A x2 (2x)
F#m
Ko je levo, ko je desno, ko je gore, ko je dole
A
Ko me gleda, ko me prati, ko je srecan, a ko pati
F#m
Ko me voli, sta me boli, ko mi veli da me zeli
A
Ko mi kaze da me laze, ko me laze neka kaze
A F#m
Pa pa pa pa

refren
ELEKTRIČNI ORGAZAM :: SEX$ DROGA$ NASILJE$ I STRA%
Em C Em C D } 6x
Em C C D
Ko jos moze da kaze da je probao sve
Em C C D
ko jos moze da kaze da nije potpuno sam.
Em C Em C
Ko jos moze da kaze mene ne zanima to
Em C Em C
ko jos moze da kaze da je isti ko pre.
G D
Jer sada su tu
Em G D
seks droga nasilje i strah ostali su,
Em G D
seks, droga, nasilje i strah, samo su tu,
Em G D
seks, droga, nasilje i strah, ostali su.
Samo mozes da spavas kada cutimo svi
samo mozes da sanjas da smo isti ko ti
ja samo hocu da kazem, samo zelim da znas
neko misli na tebe, neko oseca sve.
43
ref. Jer sada su tu... } 2x
Em C } 2x Em
ELEKTRIČNI ORGAZAM :: BEJBE TI NISI TU
uvod: E H A H, (H5 A5 G#5 F#5)
E
Jutro tek je svanulo
H
Nezno me dodirnulo
A E
Budim se, svatam vise nisi tu
E A
Otvori oci bejbe,
H E
Ovaj dan je tvoj bejbe
A H E
Al bejbe, bejbe, bejbe ti nisi tu
ref:
E H Hsus4 H
Bejbe, bejbe, bejbe ti nisi tu
C#m G#m A Asus4 a
Kazem bejbe, bejbe, bejbe ti nisi tu
E A E
Kada dodje san, tada znam
A
Sanjam te zadnji put jer
E H E
Bejbe, bejbe, bejbe ti nisi tu
< prelaz: H>
Mislis da si pametna
Ustvari bas si blesava
Nema te, to je kraj, to je kraj
Al gde ces sada bejbe
Ti si sasvim luda bejbe
Al bejbe, bejbe, bejbe ti nisi tu
< ref>
< uvod>
< ref>
E
Sing a song...
ref:
E H Hsus4 H
Bejbe, bejbe, bejbe ti nisi tu
C#m G#m A Asus4 a
Kazem bejbe, bejbe, bejbe ti nisi tu
E H Hsus4 H
Bejbe, bejbe, bejbe ti nisi tu
C#m G#m A Asus4 a
Kazem bejbe, bejbe, bejbe ti nisi tu
E A E
44
Kada dodje san, tada znam
A
Sanjam te zadnji put jer
E H A E
Bejbe, bejbe, bejbe ti nisi tu
!! Hsus4 x2445x !!
DŽUKELE :: AMERIKA
Intro solo
F# A H
Od Aljaske do Meksika prostire se drzava
Van vremena i prostora, misli da je najveca
Polje, suma, livade, gradovi i planine
To su nase slavne Sjedinjene Drzave
Amerika, Amerika, bogata i ponosna
Amerika, Amerika, bomila klovnova
Amerika, Amerika, ja sam sretan sto sam tu
Amerika, Amerika
Solo
Hvala vam za sve sto ste ucinili
To vam nikad necemo zaboraviti
Hvala vam za sve sto ste uradili
To vam u zivotu necemo oprostiti
Refren
Ne treba nam vasa masturbacija
Ne treba nam vasa mlada generacija
Ne treba nam vasa prostitucija
Ne treba nam vasa administracija
Refren
Kraj:
E-----------------------------------------------------------------
H-----------------------------------------------------------------
G-----------------------------------------------------------------
D-4--4----4-4-9---9---9---9---7--7--7--7--7/9---9---9--9----------
A-4--4----4-4-9---9---9---9---7--7--7--7--7/9---9---9--9----------
E-2--2--0-2-2-7---7---7---7---5--5--5--5--5/7---7---7--7----------
E-----------------------------------------------------------------
H-----------------------------------------------------------------
G-----------------5--5---2--2---4--4-44-44-4----------------------
D-7--7---2--2-2---5--5---2--2---4--4-44-44-4------------------4---
A-7--7---2--2-2---3--3---0--0---2--2-22-22-2--2-3-2-3-2-0-----4---
E-5--5---0--0-0-------------------------------------------2-0-2---
BOMBAJ ŠTAMPA :: MRAK I JA
A
Dan je ovde dug i stenje
45
E
svaki se rodi svaki pogine
D
mrak mi se uz krevet penje
A E
ja mu grumen otkinem
i stavim pod glavu.
A iz njega mi iscure
moje i tvoje stare slicice
i kada kazem ne mogu vise
nesto u meni podvrisne
i vice proci ce.
D E
Docemo mrak i ja
A
do tvojih usana skupa
D E
docemo mrak i ja
A
do tvojih usana.
Suva zemlja me izdigne
karirano nebo me pritisne
i bas kad kazem ne mogu vise
tvoje mi usne odnekud zazvone
i kazu proci ce.


BOMBAJ ŠTAMPA :: BOLJE LETIM SAM

1,2,3,i
uvod: G5-G6-G5-G6-G5-G5-G6-G5-G6 C5-C6-C5-C6 D5-D5-D6-D5-D6
solo:
e-------------------------------------/-------------------- bridge C G
h--------7---------8--7---------------/--------------------
g-7----9----9-7---------9-7--9-7------/--------------------
d--------------------------------9-7--/--(5)drugi put------
a-------------------------------------/--------------------
e-------------------------------------/--------------------
G
U zadnje vrijeme cesto otvaram prozor
C
sa njega posmatram
G
U zadnje vrijeme cesto mislim na tebe
C
mislim na nas
D
U zadnje vrijeme tako tesko je s tobom
Em
jer ti neces da poletis samnom u zrak
C
U zadnje vrijeme skupljam snagu

46
moram nesto da ti kazem,
D
spremi se da cujes, spremi se da znas

Ref.
C
Hajde, hajde, hajde zbogom
G
bolje letim sam neg' sto letim s tobom x2
D Em
Bolje letim sam i brze letim sam
D Em
najbolji sam sam, ti ne trebas mi, znam
D Em
ponovo cu sam ko i svaki drugi dan
D
da poletim sa svoga prozora

solo + uvod ritam
G
U zadnje vrijeme cesto otvaram prozor
C
sa njega posmatram
G
U zadnje vrijeme cesto mislim na tebe
C
mislim na nas
D
U zadnje vrijeme tako tesko je s tobom
Em
jer ti neces da poletis samnom u zrak
C
U zadnje vrijeme skupljam snagu

moram nesto da ti kazem,
D
spremi se da cujes, spremi se da znas
Ref.
C
Hajde, hajde, hajde zbogom
G
bolje letim sam neg' sto letim s tobom x2
D Em
Bolje letim sam i brze letim sam
D Em
najbolji sam sam, ti ne trebas mi, znam
D Em
ponovo cu sam ko i svaki drugi dan
D
da poletim sa svoga prozora
solo + uvod ritam
C
Hajde, hajde, hajde zbogom
G
bolje letim sam neg' sto letim s tobom x2
47
D Em
Bolje letim sam i brze letim sam
D Em
najbolji sam sam, ti ne trebas mi, znam
D Em
ponovo cu sam ko i svaki drugi dan
D
da poletim sa svoga prozora u zrak
(hajdeeeeeee) bolje letim sam,brze letim sam
(hajdeeeeeee) bolje letim sam,ja mnogo bolje letim sam
BAJAGA - VERUJEM$ NE VERUJEM
UVOD x2:
Amol C Gdur Cdur Fmaj7
-------------------------------------------------------
-------------------------------------------1--1---1--1-
----2---2-------2---2----0---0----0---0-----0---2------
------2-----------2-----------------2----3---------3---
--0-----------3------------2----3----------------------
-----------------------3-------------------------------
-------------------------------------------------------
-----1---1----1---1------------------------------------
-------------------------------------------------------
---2---0-----------------------------------------------
------------3---2--------------------------------------
-------------------------------------------------------
Prva strofa se svira kao uvod:
Gluvo je doba svi zaspali
osecam strasan nedostatak buke
hocu da vristim a ne mogu sam
ljudi su danas osetljivi na zvuke
refren:
jer je noc, noc, noc, noc
totalni je mrak
nista se vise ne vidi u tami
ovo svetlo je usamljeni zrak
osecam ipak k'o da nismo sami
Am-4-4tinski ritam
ti i ja
akordi:
Am G C F C G Am
Verujem - Ne verujem x2
Am, G C/ F, C G
Ustani, nije vreme spavanja
Dodji da cujes pobednicke trube
Napi se vodom sa ovog izvora
Napolju ljudi pevaju kroz zube
Refren: Jer je noc, noc....
Cekamo jutro da se razdani,
48
Da neko dodje i donese svecu
U ovom mraku covek ne vidi
A ja da cekam ne mogu i necu
Refren: Jer je noc, noc....
Ustani, nije vreme spavanja
Dodji da cujes pobednicke trube
Napi se vodom sa ovog izvora
Napolju ljudi pevaju kroz zube
Refren: Jer je noc, noc....
BAJAGA :: NA VR%OVIMA PRSTIJU
|Hm |A |D |F#7 | x2
Te noci dok su pevali
Veliki modri talasi
Na vrhovima prstiju
Na moje srce stala si
Hteo sam da ti pokazem
Gde nebo more preseca
Da vidis vile srebrne
Sto lete oko meseca
|Hm |A |D |F#7 |
mmmmmmaaaaaaaaaaaaaaaaaaaa
|Hm |A |D |F#7 |
aaaaaaaaaaaaaaaaa iskre lete
|Hm |A |D |F#7 | x2
|Hm |A |D |F#7 | x4 usporeno
Koraci ko laki oblaci skoci da te zemlja odbaci
Koraci ko laki oblaci zvone tiho zlatni praporci
Koraci ko laki oblaci skoci da te zemlja odbaci
Koraci ko laki oblaci hajde hajde treba ti
|Hm |A |D |F#7 | x2
Te noci dok su pevali
Veliki modri talasi
Na vrhovima prstiju
Na moje srce stala si
Solo
|Hm |A |D |F#7 | x2
refren
BAJAGA :: JOŠ TE VOLIM
INTRO: |Am |G | x nekoliko (sa riff-om)
Am G
Godine nizes ko da su perle
Am G
49
od bizuterije do cilibara
Am G Am G
a tek poneka blistavi brilijant.
Mozda u nekom drugom zivotu
prepoznas mene ko ukus vina
pa uporedi otiske svoje
na mome srcu od plastelina.
F C
Par stotina godina
F C
ni jave ni sna
Am G
u beskraju vecnosti
Am E
gde cekam te ja
Am G ...
jos te volim.
Godine nizes ko da su perle
od bizuterije do cilibara
a tek poneka blistavi brilijant.
Da li ponekas sama u mraku
osetis setu gluvu a jaku.
I miris kose mokre od kise
da li jos uvek isto mirise.
Par stotina godina
ni jave ni sna
u beskraju vecnosti
gde cekam te ja
jos te volim.
BAJAGA :: OVO JE OVDE BALKAN
Hm G F# x4
Hm G F#
Ovo je ovde balkan zemlja iz sna
Izmedju mocnih sila dobra i zla
Tu svako moze biti dusman i brat
Svakih pedeset leta izbije rat
A Hm
Ovu su zemlju pravili
A F#
I ratnici i pesnici
A Hm G F#
I razliciti bogovi
Ovo je ovde balkan mirisni cvet
Totalno nerazumljiv za ceo svet
I svako moze biti dusman i brat
Svakih pedeset leta izbije rat
A Hm
Ovu su zemlju pravili
A F#
I ratnici i pesnici
50
A Hm G F#
I razliciti bogovi
Intro
Refren
Intro + solo
BAJAGA :: PLAVI SA#IR
A
Kuda si posla sa ti tamnim ocima
A
I cije ime ti na usni pociva
D
kazi mi ko ti guzva postelju
G D A
I ko ima zlatne kljuceve od tvojih tajnih odaja
Daj da te pratim gde god da si krenula
Sretan je onaj s kim si noci delila
Daj da te pratim i da budem sena
Da ne budes usamljena kad po vodi budes hodala
Prva i druga strofa ponovo
Ref x2:
A
Hajde plavi moj safiru
A
Hajde ceznjo i nemiru
D G D A
hajde dodji i ostani tu
Duvaju promaje kroz vrata naroda
Tuda smo prosli mi jos davno nekada
Kazi mi ko ti guzva postelju
I ko ima zlatne kljuceve od tvojih tajnih odaja
Daj da te pratim gde god da si krenula
Sretan je onaj s kim si noci delila
Daj da te pratim i da budem sena
Da ne budes usamljena kad po vodi budes hodala
Ref x2:

BAJAGA :: ŽIVOT JE NEKAD SIV NEKAD ŽUT
Uvod x2: Hm F#m A E - svaki akord po 2 puta
F#m
Zivot je nekad siv nekad zut
A
zivot je (zivot je)
E
ovaj put (ovaj put)
F#m
za mene zabrinut
51
Ne brini Ziko ti kazu svi
Zile nemoj brinuti
bolujes od ljubavi
to se tesko podnosi
Hm F#m
Toliko je volim a nisam sa njom
A E
bas ti sada ja pricam o tom
koliko je volim ja najbolje znam
i na kraju ces ostati sam

prelaz D x2
refren x2:
A x4
tvoj zivot je nekad siv
E x2 D x2
nekad siv, nekad zut
Uvod x2: Hm F#m A E - svaki akord po 2 puta
zivot je nekad zut nekad siv
zivot je (zivot je)
kad si ziv (kad si ziv)
zivot je za to kriv
Ne brini Ziko ti kazu svi
Zile nemoj brinuti
bolujes od ljubavi
to se tesko podnosi
Toliko je volim.
Refren
BAJAGA :: MONTENEGRO
Uvod x4: Am G F C
E--5-8-5---7------5--------------
H--------8---8--6---8---5--8--5--
G---------------------5----------
D--------------------------------
A--------------------------------
E--------------------------------
Am G F C
Ja imam sator od zvezdanog neba
Am G F C
finog tkanja
Am G F C
Podjimo brzo jer strasno mi fale
Am G F C
putovanja
Podji ponesi sve nevazne stvari
Sve sitnice
Ali na krevetu zaboravi svoje
umorno lice
52
F G
Ref: Na skriveno te vodim mesto
C
Izmedju planina i mora
F G
Gde gorski vetar peva pesmu
C
"Jos ne svice rujna zora"
F G
Na skriveno te vodim mesto
C
Gde su i nocu tople stene
G
Montenegro (montenegro), zove tebe (zove tebe),
Montenegro (montenegro), zove mene.
Uvod
Ja cu ti praviti od planinskog bilja
Ljubavne kreme
Ponesi osmeh i u velikoj flasi
Lepo vreme
Ja imam sator od zvezdanog neba
finog tkanja
Podjimo brzo jer strasno mi fale
putovanja
refren
BAJAGA :: TIŠINA
Am C G
Mrak se skupio u kap
Rano jutro kao slap
Ulazi u sobu
Dal' si ikad pitala
Tamne senke zidova
Ujutro gdje odu
Oci su ti sklopljene
Usne su ti umorne
Ne ljubi me njima
Nisu cvorci pjevali
Dok' je iznad krovova
Svirala tisina
Solo:
|--------------------------------|--------------------------------------------|
|--------------------------------|--------------------------8/10-8-10-8-10-10~|
|--------4-5--4-5--7/9-7~--------|--------4-5--4-5--7/9--7~-------------------|
|-7~-5-7-----------------9-7-5~--|-7~-5-7-------------------------------------|
|--------------------------------|--------------------------------------------|
|--------------------------------|--------------------------------------------|

|--------------------------------|--------------------------------------------|
|--------------------------------|-8/10--8------8-----------------------------|
|-------4-5--4-5--7/9--7~--------|----------7/9---9\7~-5-4--------------------|
|----5-7-----------------9-7-5~--|-------------------------7-5~---5-7~~~~-----|
|--------------------------------|--------------------------------------------|
53
|--------------------------------|--------------------------------------------|
Hajde Boze budi drug
Pa okreni jedan krug
Unazad planetu
Noc je kratko trajala
A nama je trebala
Najduza na svetu
U mom oku samo hlad
U mom srcu samo stud
Inje i prasina
Nisu cvorci pevali
Dok je iznad krovova
Svirala tisina
Solo
U cik zore zvizdi voz
Njime odlazim u Oz
Necu da se vratim
Sto god tebi napisem
Pocepam i obrisem
Al' ti moras znati
Nisi se probudila
Zato nisi videla
Igrale su sene
Nek' te dobri drugovi
i kraljevski orlovi
cuvaju od mene.
Poslednji solo:
|----------------------------------------8-7----8-7----8-7----------
|-8/10--8------8----------------8/10--8------8------8------8-8-8/10-
|----------7/9---9\7--5-4-------------------------------------------
|-------------------------7-5~--------------------------------------
|-------------------------------------------------------------------
|-------------------------------------------------------------------...ponavlja
se
BAJAGA :: SA DRUGE STRANE JASTUKA

A#m
Ljubim te i pokrivam
Krilima plavog goluba
Sanjivu te ostavljam
F#
U hodnicima secanja
F
Sa druge strane
A#m
Sa druge strane jastuka

A#m G#
Jos zelim da ti poklonim
A#m G#
Listove divljeg kestena
A#m G# A#m
Jos jednom da te zastitim
G# F#
54
Dok te magla zaklanja
F A#m
Sa druge strane jastuka

Saljem ti tajne poruke
Dahom nocnoh vetrova
A ne znam da li prolaze
Pored rajskih vrtova
Sa druge strane jastuka


BAJAGA :: MUZIKA NA STRUJU
Intro:
F# C# H
F# C#
Ti mozes i da odes, ali moras da se vratis
E H
Ti mnoge stvari shvatas, ovo ne mozes da shvatis
F# C#
Jel niko niko ne moze da zna
E H
Kad muzika svira sta osjecam ja
Ja volim zvuk motora i kad skripe gume
A klasiku voli onaj ko razume
Ptice pevaju lepo al' uvek istu pesmu
I voda dobro tece kada odvrnem cesmu
Refren:
F# C#
Kad moje usi cuju muziku na struju
H
Tad moje srce bije u ritmu melodije
Kad moje usi cuju muziku na struju
Tad moje srce bije u ritmu melodije
Ja volim boju glasa ko sto ima ona
I volim kada sapuce mi preko telefona
I muziku kad mi propusti kroz zicu
Ja docekam je sa osmehom na licu
Ja volim zvuk motora.
Refren
Ja volim boju glasa.
Ja volim zvuk motora.
Refren x2
BAJAGA :: LEPA JANJA RIBAREVA KĆI

D A
Maslina je oliva mene sunce poliva
Hm F#m
procvale su kajsije rumene
55
G
pa se vidi jasnije
D
pa se cuje glasnije
A
na celom svetu od sto milja.
Mene sunce nervira
zrake lose servira
pa te dobro ne vidim ovaj put
onda vidim jebote
nigde takve lepote
na celom svetu od sto milja.
G A Hm F#m
Niko lepsi nego ti
G D A
lepa Janja,ribareva kci
Hm F#m Hm F#m G
na celom svetu lepote takve ni
D A
samo lepa ribareva kci.
Maslina je oliva mene sunce poliva
procvale su kajsije rumene
pa se vidi jasnije
pa se cuje glasnije
na celom svetu od sto milja.
Mene sunce nervira
Zrake lose servira
Istopi ti maskaru svaki put
Pa se ljutis na mene
Pa mi trazis zamene
Na celom svetu od sto milja.
REFREN
Onda pesme drugi deo
da promenim ja bih hteo
jer nevolim depresivne krajeve
zato zelim ribarima puno srece s vetrovima
i pune mreze ribe sveze.
REFREN
BAJAGA :: &&' U VOLTIMA
C5 F5 G5
Pale se svetla zuji elektrika
Kroz vazduh struji cista energija
Gledam u pod a pod se pomera
F5 G5
Pod nogama
Er-duri izlaze iz svih celija
Dobos me udara sa nula dva
ja ne znam koliko ima napona
U voltima
56
C5 F5 G5
To je taj zvuk koji me pomera
To je taj zvuk koji me obara
To je taj zvuk koji me pomera
Sa dvesta dvadeset u voltima
C5 F5 G5
U voltima
BAJAGA :: GODINE PROLAZE
Uvod x2:
D A Hm G
D A D G

D A
Secam se slike ja
Hm G
Od pre par godina
D A
Na slici proljece
D G
i suncan dan
D A
U basti mirisa
Hm G
cvetovi irisa
D A
Sarena hartija
D G
I ti i i ja

secam se slike ja
pre jedno mesec dva
Na slici decembarski
vreo dan
Na reku uzdaha
Sunce se ne vraca
Zelena obala
I ti i ja

Ref:
D A
Godine prolaze
Hm G
Nervoznim korakom
D A
Godine prolaze
D G
mi stojimo
D A
Jesmo li sretniji
Hm G
jesmo pametniji
D A
godine prolaze
D A
Mi gledamo
57
BAJAGA :: DVADESETI VEK
INTRO i kroz celu pesmu: E D
E D E D
Jednog jutra ispod moga prozora
Desila se frka neopisiva
Znam da nisam spavao mada mi se malo zevalo
Al' cetiri i po milijarde napolju je pevalo

Ne verujem,gledam,ustajem iz kreveta
Sve zvuci kao Betovenova deveta
Ja ih pitam,ljudi,zar vam je do pevanja
A oni kazu JESTE bez oklevanja
I jos ih pitam dal' je mozda neki vrlo vazan dan
A oni kazu NIJE sta si dosadan

Svi vojnici u rovovima
Bas svi ludjaci po krovovima
U avionu pevaju iz dosade
Kapetan i clanovi posade
Lepotice pevaju u kadama
U koru vladari s vladama
I niko ne peva na plej bek
Iako je dvadeseti vek

E D(sus2)
Da sam hipik odseko bi kosu
Da sam gangster javio bi bosu
Da sam vatra pusio bi se
Da sam stao srusio bi se
Da sam hladan ne bi se nervirao
Da sam lova ja bih devalvirao
Da sam blizu javio bi se
Da sam gnjurac udavio bi se

ne verujem gledam.......
BAJAGA :: GORE DOLE

G
Eeeeeeee Eeeeeeeeeaaa
D C
Eeeeeeeee Eeeeeeeeeaa

G
Nemoj nikad biti dole
Mada neki i to vole
Nemoj nikad biti dole
Jer se dole noge bole

D C
Gore dole dole gore
G
Sve je gore dole

Nemoj nikad biti gore
Za to uvek ima fore
Nemoj nikad biti gore
58
Jer si gore i pregore
Nemoj nikad biti dole
Mada neki i to vole
Nemoj nikad biti dole
Jer se dole noge bole

Gore.....

C D G
Idemo malo dole
C D G
Idemo malo gore

Nemoj nikad biti dole
Mada neki i to vole
Nemoj nikad biti dole
Jer se dole noge bole

Gore dole...

Nemoj biti u sredini
Jer ces biti u manjini
Nemoj biti u sredini
Ili prvi bar otkini

BAJAGA :: MOJI DRUGOVI
Intro:
E-0-5-4-5-7-4-5-3-1-0---3-1-0---0-3---0-1---0-1-1-5-3-1-0---0-1-5-3-1-0---0-
H---------------------3-------3-----3-----3---------------3-------------3---
G---------------------------------------------------------------------------
D---------------------------------------------------------------------------
A---------------------------------------------------------------------------
E---------------------------------------------------------------------------
E-3-1-0-----------------------------
H-------3-1-0-1-3-1-0-1-3-0---0-1---
G---------------------------2-----2-
D-----------------------------------
A-----------------------------------
E-----------------------------------
Solo:
E---3---3-3-1-0---0---3---3-3-1-0---0---3---3-3-1-0---0-
H-3---3---------3---3---3---------3---3---3---------3---
G-------------------------------------------------------
D-------------------------------------------------------
A-------------------------------------------------------
E-------------------------------------------------------
E-3-1-0-----------------------------
H-------3-1-0-1-3-1-0-1-3-0---0-1---
G---------------------------2-----2-
D-----------------------------------
A-----------------------------------
E-----------------------------------
Am E
Moji su drugovi biseri rasuti
Am Am E Am
59
Po celom svetu
C G
I ja sam selica pa ih ponekad
C C G C
Sretnem u letu
F C
Dal' je to sudbina il ko zna sta li je
F C
Kad god se sretnemo uvek se zalije
E7 Am
Uvek se zavrsi s nekom od nasih pesama
Moji su drugovi zestoki momci velikog srca
I kad se pije i kad se ljubi i kad se puca
Gore od aljaske do australije kad god se sretnemo
Uvek se zalije uvek se zavrsi s nekom od nasih pesama
Ref:
G C
Da smo zivi i zdravi jos godina sto
G C
Da je pesme i vina i da nas cuva bog
G C
Da su najbolje zene uvek pored nas
E7 Am
Jer ovaj zivot je kratak i prozuji za cas
solo
BABE :: KO ME TER(O
INTRO:
Am G C E
E|--5-----------|------------3--|-------------------|
H|-----5--------|---------3-----|--6-6-5-5h6p5p3-5--|
G|--------5-----|------4--------|-------------------|
D|-----------7--|--5------------|-------------------|
A|--------------|---------------|-------------------|
E|--------------|---------------|-------------------|
Am G Am
E|--5-----------|-----------------|-------------------|
H|-----5--------|-----------------|-------------------|
G|--------5-----|---4-4h5-4h5p4-2-|-----------5-------|
D|-----------7--|-5---------------|-------5h7---7-5-7-|
A|--------------|-----------------|---/7--------------|
E|--------------|-----------------|-------------------|
Am G C E
E|--5------------|------------------|-----------------|
H|-----5-----5h6-|-6/8---8-6--6-6p5-|-5h6p5p3-5-------|
G|--------5------|------------------|-----------------|
D|---------------|------------------|-----------------|
A|---------------|------------------|-----------------|
E|---------------|------------------|-----------------|

Am G Am
E|--5-----------|-----------------|-------------------|
H|-----5--------|-----------------|-------------------|
60
G|--------5-----|---4-4h5-4h5p4-2-|-----------5-------|
D|-----------7--|-5---------------|-------5h7---7-5-7-|
A|--------------|-----------------|---/7--------------|
E|--------------|-----------------|-------------------|
Am G C E
Sticajem cudnih okolnosti,
Am G C E
dok sam tonuo u dosadu,
Am G C E
ruku spasa si mi pruzila,
Am G Am G
time si me ti zaduzila.
Znao sam da si prevrtljiva,
i na onu stvar nasrtljiva,
o tebi sam cuo zao glas,
kako posrnes za tili cas.
G Am G
Ko me tero da te volim
C E
ko me tero,
Am G
ko me tero da te volim.
Am G
Ko me tero.
Majka mi je lepo branila
da iz kuce izlazim tad ja,
ali ja je nisam slusao,
tebe sam te noci probao.
Morao sam tebe probati,
morao sam jer sam bio lud,
morao sam sebe kazniti,
morao sam nisam imao kud.
BABE :: SUDAR S NOVIM MOMKOM
-play muted<< pm.
E|---------------------------------|---------------------------------|
B|---------------------------------|---------------------------------|
G|---------------------------------|---------------------------------|
D|-----------------2---2-0-2---2-0-|-2-0-2-4-5---5-4-5---5-4-5---5-4-|
A|---------------------------------|---------------------------------|
E|---------------------------------|---------------------------------|
|---------------------------------|---------------------------------|
|---------------------------------|---------------------------------|
|---------------------------------|---------------------------------|
|-5-4-2-4-2---2-0-2---2-0-2---2-0-|-2-0-2-4-5---5-4-5---5-4-5---5-4-|
|---------------------------------|---------------------------------|
|---------------------------------|---------------------------------|
Em G
|---------------------------------|---------------------------------|
|---------------------------------|---------------------------------|
|---------------------------------|---------------------------------|
|-5-4-2-4-2---2-0-----------------|---------------------------------|
|---------------------------------|---------------------------------|
61
|---------------------------------|---------------------------------|
Em H
Stojis gola pred ogledalom i razmisljas o tome
A Em
Da li danas da obuces suknju ili pantalone
H
Dok se lomis u dilemi ne znas da po tebi luta
A Em
Vlazni pogled jednog komsije iz zgrade preko puta
H5 E5
Gacicama oko prsta
D5 G5
Vtris kao helikopter
F#5 H5
Dok on zadihano brise
A5 D5 H
Zamagljeni svoj diopter
Refren: x2
G D Em
Imas sudar s novim momkom
G D Em
Koji se naduvao od treme
G D Em
Njemu trava fura na nervozu
D A Em
Ako ne dodjes na vreme ti
Vreme leti ko da preti, decko ceka te kod Meka
Losa sprava vec ga spusta, ostace od tebe fleka
Kreature, kratura u trolejbusu te gura
I pod rebra tura lakat, pljunuces ga to je fakat
Saznala si da tvoj bivsi
Decko sada fura s tvojom
Najboljom drugaricom Oljom
Onom nafrakanom droljom
Refren x2
Srces mlekotres na slamku u McDonalds restoranu
Momak zove te na zurku da sa tobom skine djanu
Kazes mu da nisi laka, da ne dajes bilo kome
On ti sapuce na uvo da je kupio kondome
Poljupci bez osecanja
Plasis se od drugog stanja
Razmisljas o bivsem decku
Koji ima stan i Mecku
BABE :: DA TE VIDIM GOLU
G C
Ako me volis, dokazi to i ne uzimaj za zlo
G F C G
Sto sam brz bio, kratko te ljubio.
U tvome oku ne vidim sjaj, slutim i na skori kraj.
62
Bas mi se ne da, djavo me ujeda.
G
Da te vidim golu ( daj da te vidim golu )
C
na severnom polu ( na severnom polu )
G F C G
Da te vidim golu, to sam pozeleo.
Ti si za mene svetinja, ustvari si avetinja.
Ne budi takva vestica opaka.
U noci punog meseca, strah mi dusu preseca.
Srce mi kalnu na tebe brutalnu.
Da te vidim golu ( daj da te vidim golu )
na severnom polu ( na severnom polu )
Da te vidim golu, to sam pozeleo.


AT%EIST RAP - )ARTBURG LIMUZINA
INTRO BASS:
G----------------
D-5--------------
A---5--7-7-5-7-5-
E----------------
Riffovi (tema)
E-----------------------
H-----------------------
G-7---------------------
D-5--7--9-9--7--9--7----
A----5--7-7--5--7--5----
E-----------------------
Pre godinu dana imali smo kola
ali su ih svinje pojele do pola
posto volimo suludu brzinu
kupili smo sebi wartburg limuzinu
Kraj uvoda :
E|----------------|----------------|----------------|----------------|
H|----------------|----------------|----------------|----------------|
G|----------------|----------------|----------------|----------------|
D|5---------------|4---------------|2---------------|----0---2---4---|
A|3---------------|2---------------|0---------------|----------------|
D|----------------|----------------|----------------|----------------|
|G |Hm |Em |C | x2
G Hm
Wartburg limuzina ima pet brzina
Em C
pravi dosta dima i tocak joj se klima
a gde ima dima i vatra postoji
jao Bog te jebo' pa to motor gori
Jest da motor gori ali zato pici
pa se svaki sofer sa wartburgom dici
sasija mu cvrsta, debela dva prsta
a motirzeri tvrdi, stradala mi krsta
63
G Hm
Wartburg limuzina, najduza masina
Em C
cetri metra lima i pet meteri dima
Wartburg limuzina, najduza masina
cetri metra lima i pet meteri dima
Wartburg limuzina pokorna masina
pravio je Pera iz bivseg DDR-a
i ne da ga je napravio nego svaka cast
stalno mu iz auspuha curi neka mast
Ima branik od betona mozes ubit slona
a sedista mu meka ko kita poneka
sve uplate prima moga sina deda
nece dobit kola taj ko mito ne da
Wartburg limuzina, najduza masina
cetri metra lima i pet meteri dima
Wartburg limuzina, najduza masina
cetri metra lima i pet meteri dima
solo improvizacija(skala G durska i paralelne)
Wartburg limuzina stoji u garazi
garaza kraj svinjca pa sam ja na strazi
da mi svinje opet ne pozderu kola
ko sto su mi trabanta pojele do pola
i odem da se odmorim i popijem par piva
al ne lezi vraze svinje hranu traze
ali wartburg nije kao trabant truba
zbog njega su svinje ostale bez zuba
AT%EIST RAP :: ZAPADNA EVROPA
INTRO i STROFA:
--------------------
--------------------
-----5---5-7-5-7----
-7---5-5-5-7-5-7-7--
-7---3-5-3-5-3-5-7--
-5-----3---------5--

Kada se osile kurajberi u firmi
I navale na moga drugara Zlatka
Deda je krao, deda je srao
Poruka njegova vrlo je kratka
refren (riffovi) x2:
F E D C
Ja sam za vas Zapadna Evropa
D E F
Preteran sam, al' vi to ne razumete
F E D C
Ja sam za vas Zapadna Evropa

Intro x1
64
Kada na fudbalu natovare drugari
Zasto je njegova uvek kontra svemu
stvarno im otpeva jedan kratak refren
Pa ode kuci da obraduje zenu
Refren x4
Intro x2
Refren x2
EROGENE ZONE :: TI I JA
Solo: F#m A Hm D
e|------------------------------------------------------------------------------
--
H|----------------------------------------------12-10-9-7--10-9-7-5--------5/7~-
5~
G|------6----6/7-6-------6----9/11-
9~---------------------------------------------
D|--2/4---4--------4-6-7---
7------------------------------------------------------
A|------------------------------------------------------------------------------
--
E|------------------------------------------------------------------------------
--
Strofa:
F#m A
Ti i ja draga za nasu ljubav se borimo
Hm D
i cekamo Boga pitaj sta.
F#m A
Ti i ja nista nemamo bez sanse da uzmemo
Hm D
to je sigurno, sasvim sigurno.
F#m A
Ti i ja postojimo da drugim ocima gledamo
Hm D
nasa su srca prevelika za nas, prevelika za nas.
Solo:
Prelaz(usporeno) x2:
Hm F#m
Drugim ocima gledamo
Hm F#m
i nesto smo posebno
Hm D F#m
u ovom svijetu olovnom.
Refren:
A F#m
Ja svako jutro kad se dignem mislim najbolje
A F#m
svako jutro ja kroz prozor vidim kranove
A F#m
i svaki dan mislim da postoje slobodne uloge.
Prelaz(usporeno) x2:
65
Hm F#m
Za one posebne
Hm F#m
sto drugim ocima gledaju
Hm D F#m
u ovom svijetu olovnom.
Refren:
A F#m
Ja svako jutro kad se dignem mislim najbolje
A F#m
svako jutro ja kroz prozor vidim kranove
A F#m
i svaki dan mislim da postoje slobodne uloge.
Prelaz:
Hm F#m
Za one posebne
Hm F#m
sto drugim ocima gledaju
Hm D F#m
u ovom svijetu olovnom.
Hm F#m
Drugim ocima gledamo
Hm F#m
i nesto smo posebno
Hm D F#m
u ovom svijetu olovnom.
Solo
RIBLJA ČORBA :: POGLEDAJ DOM SVOJ ANĐELE
razlaganje:
Em D
pogledaj dom svoj andjele
Em D
i skini paucinu s ociju
A Hm
videces prizore potresne
A Hm
videces nesrecne i bolesne
A Hm A Hm
videces cemer, smrt i jad
D
pogledaj stado andjele
Em D
sve sami bogalji i prosjaci
A Hm
slepi tumaraju u gomili
A Hm
svima su kicmu polomili
A Hm H5 C#5 D5 E5
od tebe ocekuju spas
Em D
pogledaj bagru andjele
Em D
66
njihova dusa je prokleta
A Hm
svima su stavili amove
A Hm
sebi sagradili hramove
A Hm H5 C#5 D5 E5
ruke im ogrezle u krv
Em Hm
andjele
Em Hm
andjele
Em Hm
andjele
A Hm H5 C#5 D5 E5
ruke im ogrezle u krv
Em D
podigni mac svoj andjele
Em D
seti se krstaskih ratova
A Hm
seti se preklanih vratova
A Hm
kad dodes bogu na istinu
A Hm H5 C#5 D5 E5
nek ti u dusi vlada mir
Em D
uslisi molitve andjele
Em D
dabogda pocrkali dusmani
A Hm
pa budi andjeo osvete
A Hm
neka na svojoj kozi osete
A Hm H5 C#5 D5 E5
sta znaci beda, strah i bol
Em Hm
andjele
Em Hm
andjele
Em Hm
andjele
A Hm H5 C#5 D5 E5
sta znaci beda strah i bol
razlaganje:
Em D
pogledaj dom svoj andjele
Em D
i skini paucinu s ociju
A Hm
videces prizore potresne
A Hm
videces nesrecne i bolesne
A Hm A Hm H5 C#5 D5 E5
videces cemer, smrt i jad
Em Hm
67
andjele
Em Hm
andjele
Em Hm
andjele
A Hm
videces cemer, smrt i jad
A Hm
videces cemer, smrt i jad
A Hm
videces cemer, smrt i jad
A Hm
videces cemer, smrt i jad
RIBLJA Č ORBA :: CAVA
Uvod: H,G,A,C x3 (razlaganje riffova)
H,G,A
EGAC H G A C
EGAC H G A-let ring
H G A C H GAC
Sine ona je obicna pasuljara sa Stangije.
Sine nemoj da se palis.
Nemoj si lud da je vucas do gajbe,
H G A C H GA-let ring
odvedi lujku pravo na Kalis.
refren x2:
EGAC H G A C
Ooooo,to je cava,boli glava.
EGAC H G A
Ooooo,pocepaj je za badava.
Decko,pokazi ribi da imas cuku,
ako ko furija doleti murija.
Ako zbog nje odlezis kuku,
onda bez veze ides u CZ
refren x2
RIBLJA ČORBA :: DRAGA NE BUDI PEDER
Intro: A D
D
Uzimas svoju cetkicu za zube,
G
Pomadu i kaladont.
D
Odlazis u sobu, ja sam u kujni,
A G
Predosblje je front.
Cujem kako tamo otvaras ormane,
Kupis svoje prnje.
tesim se da sve nije tako crno,
A ne moze biti crnje.
68
Refren:
A D
O, draga, ne budi peder,
A D
O, draga, ne budi peder.
A H
Ako jos ima sta da se spasava,
D C#
Nemoj da ides, ne budi sasava!
Intro
Polazis ka vratima, kljuc ti je u ruci,
Neodlucan hod,
Drzim ti palceve i navijam za tebe,
Spustas torbu na pod.
Uzimas svoju cetkicu za zube,
Pomadu i kaladont.
Odlazis u sobu, ja sam u kujni,
Predosblje je front.
refren
RIBLJA ČORBA :: JUŽNA A#RIKA (*" JA ĆU DA PEVAM!
Ja cu da pevam !
Ja cu da pevam !
fill 1 x4:
------------------
------------------
------------------
------------------
------------------
-5-8-7-5-8-7-5-3--
Am (fill 1)
Vecera je gotova ima puno otrova,
F G Em Am (fill 1)
svi jedemo splacine na razlicite nacine.
fill 1 x2
Am (fill 1)
Napisali ustave da mozak zaustave,
F G Em Am (fill 1)
napisali zakone da se bolje zaklone.
fill 1 x2
Evo, ide istina dronjavo obucena,
grbava i mrsava, krvava, pretucena.
fill 1 x2
Danas nema nastave okacite zastave
Urlajte parole jer salju patrole
69
fill 1 x2
refren:
F
A ja cu da pevam makar i promuklo,
G
ja cu da pevam kud puklo da puklo.
C G Am F
Ja cu da pevam!
C G Am
Ja cu da pevam!
fill 1 x4
Kad zatvore sagrade delice se nagrade,
nagradzeni dobiju batine i robiju.
Radnici i radnice ne budite gladnice,
uvek ima kolko treba govana i hleba.
Vojska vrsi obrede u cast svoje pobede,
trose nase zarade da naprave parade.
Vecera je gotova ima puno otrova,
svi jedemo splacine na razlicite nacine.
refren
RIBLJA ČORBA :: AMSTERDAM
Solo:
E--------------------------------- ----------------------
B--12--14-15-14-12-------12------- ----------------------
G------------------12-14----14-12- -11-------------------
D--------------------------------- ----14-12-11----11-12-
A--------------------------------- -------------14-------
E--------------------------------- ----------------------
E--------------------------------- ----------------
B--12--14-15-14-12-------12------- ----------------
G------------------12-14----14-12- -11-------------
D--------------------------------- ----14-12-11----
A--------------------------------- -------------14-
E--------------------------------- ----------------
Hm A Hm A
Neko mi je ukrao biciklo
Hm A Hm A
jer ga nisam dobro vezo lancom
Hm A Hm A
na biciklo ovde sam naviko
Hm A Hm A
da se ne bi osecao strancom.
Kucici po ulicama kaku
cipelu sam umazo govancom
hoce da me grizaju u mraku
da se ne bi osecao strancom
70
Refren:
D A
U kafanu pusu marihuanu
D A
ili neku drogu piju s' nogu
D A
te sam noci spavao pod sankom
D E
da se ne bi osecao strancom.
Hm A Hm A Hm
Am_ster_dam...
Ovde uopste nema Holandezi
sve Arapi, crnci i Kinezi
tu ljudovi uopste ne spavaju
samo picu i zajebavaju.
Tu kurave u izlozi sedu
cutu, pusu prolaznike gledu,
sedu gole ili u neglize
musterije da im pridju blize.
Moju malu trazim po kanalu
gde se vodom setaju sa brodom
ceo dan sam plivao za camcom
da se ne bi osecao strancom.
Svuda guzva, frka i krkljanac
nemas pojma ko je ovde stranac
postao sam jedan Amsterdamac
da se ne bi oseco ko stranac.
In the city of Amsterdam
you can find a lot of fun,
The Dam Square and Latice Plain
this is something I can't explain,
there is a crowd, crazy and laugh
in a distance I hear a drum
calling me to come to Amsterdam
Amsterdam... Amsterdam...
RIBLJA ČORBA :: NEMOJ DA IDEŠ MOJOM ULICOM
Intro: D bass(A,H,C#)
D bass(A,H,C#)
Ti me mnogo zezas i okolo svrljas
D bass(A,H,C#)
Bogami me ne znas, pa ce da nadrljas.
D A Hm A Hm
Zato nemoj da ides mojom ulicom
D A Hm A Hm
Nemoj da ides mojom ulicom
Solo 1:
e----------------
h-7-7-77---------
g-------9-7-6-7~-
71
d----------------
a----------------
e----------------
refren:
e------------------------------------------------------------------
h------------------------------------------------------------------
g-------2-------2-------------------------2-------2----------------
d-22----2-22----2----444-2--444-2---22----2-22----2-----4---2---4--
a-00-2^3--00-2^3-----222-0--222-0---00-2^3--00-2^3------2---0---2--
e------------------------------------------------------------------
Kupio sam pistolj kod svercera na crno
Na tebe cu rado da potrosim zrno
Stvarno nemoj da ides mojom ulicom
Nemoj da ides mojom ulicom
A Hm
E nemoj, stvarno nemoj
A Hm A Hm
Ni u ludilu nemoj, mojom ulicom.
Solo 1
Mozes da me tuzis za ozbiljnu pretnju
Ali ipak pazi kad podes u setnju.
Tada nemoj da ides mojom ulicom
Nemoj da ides mojom ulicom
E nemoj, stvarno nemoj
Ni u ludilu nemoj, mojom ulicom.
Solo 1 + solo 2
Zasto da se mucim, da zbog tebe patim
Najbolje ce biti za glavu da te skratim.
Ipak nemoj da ides mojom ulicom
Nemoj da ides mojom ulicom
E nemoj, stvarno nemoj
Ni u ludilu nemoj, mojom ulicom.
Solo 2:
e------------------------------------------------------------------
h------777-9-7-----7--------------777-9-7-----7--------------------
g-6-7-9--------999--9--7-6---6-7-9--------999--9-6-7-9-------------
d--------------------------9---------------------------------------
a------------------------------------------------------------------
e------------------------------------------------------------------
RIBLJA ČORBA :: AVIONU SLOMIĆU TI KRILA
E----------------------------------------------------------
H-------------------------------------------------------3--
G-----------------2-5-5-5-4-0---------------2-5-5-5--4-----
D--0-0-2-0--0-0-4-------------0-0-2-0--0-0-4--------------- x2
A----------------------------------------------------------
E----------------------------------------------------------
E-------------------------------------------------------------
H-----------------------------------------------------------3-
G---------------------5-5-5--4-0--------------------5-5-5-4---
72
D---------------2-5----------------------------2-5------------
A--3-3-5-3--3-3-------------------3-3-5-3--3-3----------------
E-------------------------------------------------------------
D G
Bivao sam sa jednom i drugom,
D G G7
muvao se sa onom i ovom,
C G
druzio se sa srecom i tugom,
C G
a ti ode prvim avionom.
Teoretski, ljubav lepo zvuci,
malcice je drukcije u praksi,
mnogo toga jos uvek se uci,
ajmo dole, stigao je taksi. D
A Hm
Avionu slomicu ti krila,
D A
da ne letis, ona bi tu bila,
A Hm
joj ako ti uhvatim pilota,
D A
lisicu ga njegovog zivota.
RIBLJA ČORBA :: BABY I DON+T )ANNA CRY
[A]kada si otisla s njim
[D]bio je trinaesti mart
taj [E]dan ce osta[D]ti
for[A]ever in my [E]heart
moja [A]soba je bila prazna
i ja sam [D] uzalud skrivao bol
a na [E]zidu su igrale [D]senke
like [A]shadows od the [E]wall
[D]mrzeo sam te danju
a [A]zeleo te u snu
[D]znao sam da nikad vise
I [E]can't stop loving you
[D]hteo sam da budem hrabar
[A]muski da podnesem kraj
[D]ne ja necu plakati oh
[E]baby baby i don't wanna cry [E][A][E]
baby baby i don't wanna cry [E][A][E]
baby baby i don't wanna cry [D][A][D][E]
RIBLJA ČORBA :: JA JE GLEDAM KAKO SPAVA
GLAVNI RIFF:
------------------------------------
------------------------------------
-------------------------------9----
--------7-9--10-9--9h10p9-9-7-------
73
---7-8------------------------------
------------------------------------
------------------------------------
------------------------------------
------------------------------------
--------7-9--10-9--9h10p9--7-8------
---7-8------------------------------
------------------------------------
[Hm]Mesec sija,[F#m] iluzija
[Hm]Ona spava na[F#m] kaucu
[A]Uskoro cu leci i[D] ja
[A]Dok napolju psi[D] jaucu 2x [D]jau[F#]cu
Svi spavaju, niko budan
A ja sedim uzaludan
I gledam je hipnotisan
Sav zaljubljen i otpisan
Ona dise, sve mirise
Ne treba mi niko vise
Po njoj samo mesecina
Prosula se k'o istina
Ja je[Fdim] gledam[Edim] kako[Hm] spava[D]
[Fdim]Lepa[Edim] je, boli[Hm] glava
RIBLJA ČORBA :: KAD %ODAŠ

C Em G Am
Vece ne mirise na rakove i skoljke
C Em G Am
Mesec je bleda fleka boje cimeta
C Em G Am
Uzimas cipele za setanje kroz snove
C Em G Am
Ulica voli ritam tvojih koraka.

Vetar se provlaci kroz nepoznate reci
Asfalt se miluje sa tvojim stiklama
Suvise mekan da bi mogao da spreci
Ovo je vece puno tvojih tragova.

C G C
Kad hodas, ne zastajkujes
C G C
Zemlju ne dodirujes
C G F
A mene ne primecujes
I uporno se trudis da me prode pozuda
Jos drhtim od tvog pogleda
Iz nekih starih razloga
RIBLJA ČORBA :: GDE SI U OVOM GLUPOM %OTELU
figure 1:intro riff
74
D5 A5 H5 F#5 G5
E|-------------------------------------------|
B|-------------------------------------------|
G|-------------------------------------------|
D|-7-7-----4-4---------^---------------------|
A|-5-5--7--2-2--4-5--5-/-4--5--7----4-5-7----|
E|------5-------2-3--3-/-2--3--5--5--------5-|
figure 3: prelaz refren-intro
Em A H
-----------0-------------
-------------0-----------
---------------0---------
-----------------2--2--4-
--------------------0--2-
-5-3-2--0----------------
figure 2 : pre-chorus
H5 F#5 G5 A5
-----------------------------------------------------------
-----------------------------------------------------------
----------------------------------------------------------- X2
-4---------------------------4--4-4--2--4-----4--4-4--2--4-
-2--4--5-5-4-5-----5-5-4-5---2--2-2--0--2--0--2--2-2--0--2-
----2--3-3-2-3--0--3-3-2-3---------------------------------
A5 H5
-------------------------
-------------------------
-------------------------
-------------------------
--7-7-7-7-7-7--9-9-9-9-9-
--5-5-5-5-5-5--7-7-7-7-7-
Hm G D A
Gorim ,ko papirni zmajevi;
Hm G A
misli mi ka tebi lete.
Ovde su pasivni krajevi,
i placem ko malo dete.
pre-chorus: (figure 2)
Mozda je glupo sto ovo pisem,
ali bez tebe ne mogu da disem.
refren
H5 D5 A A, G, F#
Gdje si u ovom glupom hotelu,
gdje si u ovom dalekom selu.
Zbog tebe vene ja bi seko,
a ti si negde tamo daleko. (figure 3)
uvod
ceo tekst ponovo
solo + pratnja D A H G A
RIBLJA ČORBA :: JA RATUJEM SAM
RIFF A F D E D C B
----------------------------------------
75
----------------------------------------
-------------------------------5-4------ x2
7-7-5-7~-5^7-7-5-7~-5^7-7-5-7~-----7-5--
----------------------------------------
----------------------------------------
RIFF A C G A
Svake noci Brankovice pozivam na pice,
A C G A
svuda oko sebe nalazim slabice,
F G
ko sa decom spava, popisan se budi,
F G
trazio sam svecom, nigde nema ljudi,
F G
kadija te tuzi - kadija ti sudi,
F G A
u pomoc.
RIFF A G A
Jaaaaaaaa a ratujem sam. D|-7-7-5-7~-5^7-7-5-7~-
A G A
Jaaaaaaaa a ratujem sam. D|-7-7-5-7~-5^7-7-5-7~-
RIFF G
Prevarice, slagace me rodzeni brat,
prodace me, zabice mi noz u vrat,
nemam poverenja, niti hocu da ga dam,
A G A
Jaaaaaaaa a ratujem sam.
RIFF A F D E D C B
----------------------------------------
----------------------------------------
-------------------------------5-4------ x2
7-7-5-7~-5^7-7-5-7~-5^7-7-5-7~-----7-5--
----------------------------------------
----------------------------------------
RIFF A C G A
Uplaseni prijatelji ni da mrdnu prst,
A C G A
sledeci sam koga ce da razapnu na krst,
F G
savest mi je mirna, necu da se kajem,
F G
dok me mozak sluzi, ja cu da ga dajem,
F G
grlo mi je jako, zato glasno lajem,
F G A
u pomoc.
RIFF A G A
Jaaaaaaaa a ratujem sam. D|-7-7-5-7~-5^7-7-5-7~-
A G A
Jaaaaaaaa a ratujem sam. D|-7-7-5-7~-5^7-7-5-7~-
RIFF G
Prevarice, slagace me rodzeni brat,
prodace me, zabice mi noz u vrat,
nemam poverenja, niti hocu da ga dam,
76
A G A
Jaaaaaaaa a ratujem sam.
RIFF A F D E D C B
----------------------------------------
----------------------------------------
-------------------------------5-4------ x2
7-7-5-7~-5^7-7-5-7~-5^7-7-5-7~-----7-5--
----------------------------------------
----------------------------------------
SOLO + RIFF A F D E (x4)
RIFF A G A
Jaaaaaaaa a ratujem sam. D|-7-7-5-7~-5^7-7-5-7~-
A G A
Jaaaaaaaa a ratujem sam. D|-7-7-5-7~-5^7-7-5-7~-
A G A
Jaaaaaaaa a ratujem sam. D|-7-7-5-7~-5^7-7-5-7~-
A G A
Jaaaaaaaa a ratujem sam.
RIBLJA ČORBA :: KO TE LJUBI DOK SAM JA NA STRAŽI
Uvod:
Am F Dm G E
E------------------------------------------------------|
H--10-12^13^12----12^13^12-----13^12------------13-12--|
G--------------10--------------------12----9-12--------|
D--------------------------12-----------12-------------|
A------------------------------------------------------|
E------------------------------------------------------|
Am F Dm G E Am
E----------------------------------------------------------|
H--10-12^13^12----12^13^12-----13^12------------13-12-10~~-|
G--------------10--------------------12----9-12------------|
D--------------------------12-----------12-----------------|
A----------------------------------------------------------|
E----------------------------------------------------------|
Am
Kapetan se seta
G
A ispred njega ceta
Am
I kaze "Ti some" ("Ja?")
G
Ides na strazu, dabome
F G
I dok mu psujem mamu
F G
Mislim na tebe samu
F G
Vec vidim nekog skota
Am
Da se tu mota
< uvod>
Rado ide Srbin u vojnike
77
Dva ga vuku, a trojica tuku
Neko ipak strazu cuva
Da nas vetar ne oduva
Ne vole nas Bugari
Ni Austrougari
Mrze nas Japanci
I Liliputanci
ref:
F
Dok ja nasu domovinu cuvam
Dm
Umesto da sedim i da duvam
G
Dok se bavim oruzanom silom
E
Ti se kreses sa nekim civilom
F
Lepo priznaj, pa cu biti blazi
Dm
Ko te ljubi dok sam ja na strazi
G
Nije lepo da ti zapnes svojski
E
Dok ja sluzim narodu u vojski
F E Am
Priznaj ko te ljubi dok sam ja na strazi?
F E Am
Ko te ljubi dok sam ja na strazi?
F E Am
Ko te ljubi dok sam ja na strazi?
F E Am
Ko te ljubi dok sam ja na strazi?
< uvod>
< strofa 2>
< ref>
< solo: Dm Am 4x Dm E>
F E Am
Ko te ljubi dok sam ja na strazi? 7x
F E Dm G
Ko te ljubi dok sam ja na strazi?
C Am
Kazi...
RIBLJA ČORBA :: NA ZAPADU NIŠTA NOVO
Am F G Am
Kriticar pesnika javno vredja,
Am F G Am
samoubica se ubio s ledja,
Am F G Am
u Africi opet drzavni udar,
Am F G Am
umorni Turcin izazv'o sudar.
Am F
REF: Bice bolje, neko vice,
78
G Am
na papiru mrtvo slovo,
Am F
na istoku stare price,
G Am
na zapadu nista novo.
Gole su lutke sa naslovnih strana,
jos jedna pobeda "Partizana",
moju zaradu drugi trose,
vreme bez promene, uglavnom lose.
REF
U bolnici pacovi pojeli bebe,
ubio prvo zenu, pa sebe,
dinar i dalje u lakom padu,
bacili bombe na ambasadu.
REF.........
veliki uporno zezaju male,
za ideale ginu budale,
fabrike truju okolinu,
kreteni dizu bune i ginu.
RIBLJA ČORBA :: ODLAZAK U GRAD
Uvod i prelazi(Figura 1): Hm D Hm A Hm
D
Uzela je svoje stvari, strpala u kofer,
Hm D Hm A Hm(Figura 1)
Tamo dole na stanici cekao je sofer...
D
Imala je s' matorcima uvek samo svadje,
Figura 1
Uzela im nesto para, tek da joj se nadje...
Ref:
G Fis
Od straha drhti k'o prut,
G Fis
Sendvic da zavara glad,
G A
tri cigarete uz put
Hm
U GRAD!!!
Steze oznojen dlan,
Morala je kad-tad,
Ona ostvaruje san
U GRAD!!!
Po korzou iste face besmisleno kruze,
Subotom i nedeljom je ostajala duze.
Kuci su je, kad zakasni, tukli kao stoku,
Bila im je crna ovca, svima trn u oku.
Volela je svoje tajne za sebe da cuva,
Ni Bog sveti nije znao sta se u njoj kuva.
79
Nece, nije htela nista nikome da kaze,
Milicija i rodjaci, svi ce da je traze...
Figura 2: Pratnja (Jedan isti rif)
D
E--------------------------------------------------|
H--------------------------------------------------|
G--------------------------------------------------|
D--------------------------------------------------|
A--10^12-12-12-10^12-12-12-10^12-12-12-10^12-12-12-|
E--10----10-10-10----10-10-10----10-10-10----10-10-|
Figura 3: Refren
G Fis G Fis
E---------------------------------------------------------------------|
H---------------------------------------------------------------------|
G----4--7---4--7------3--6---3--6------4--7---4--7------3--6---3--6---|
D--5------5------5--4------4------4--5------5------5--4------4------4-|
A---------------------------------------------------------------------|
E---------------------------------------------------------------------|
G A Hm
E--------------------------------------------------------------------------|
H--------------------------------------------------------------------------|
G----4--7---4--7------6--9----6--9-----4-------4------4--4-------4------4--|
D--5------5------5--7-------7-------7--------------------------------------|
A----------------------------------------(2)(2)--(2)(2)----(2)(2)--(2)(2)--|
E--------------------------------------------------------------------------|
RIBLJA ČORBA :: ,'' GODINA SAMOĆE
intro riffovi: G A C A G A
Am
Osecam se setno,
a ti sa prvom jesenjom kisom
G
lukavo spretno i neprimetno
Am
u secanja se uvuces krisom.
Onda oklop sa mene spadne,
budem ne raspolozen i tuzan,
noci su kisovite hladne,
ja bespomocan i razoruzan.
Am G F Am
Uneses u moju sobu tugu i teskobu,
Am G F G E
muke se ne okoncaju i prepustim se ocaju.
Refren:
C Am
Ne treba mi tamnica puna vlage i hladnoce,
C F E
moja je soba samica, za 100 godina samoce.
intro riffovi: G A C A G A
Vidim da tapkam u mestu,
da je sve prazan hod,
80
srusena kula od karata,
na sprud nasukan brod.
Osecam se setno,
a ti sa prvom jesenjom kisom
lukavo spretno i neprimetno
u secanja se uvuces krisom.
Refren:
E5 + solo
refren
RIBLJA ČORBA :: GOVNOVALJ
Gitara: Klavijature:
D G
E||--------------|------------------|--8h7----------|-------------||
B||--------------|------------------|------8-7------|-------------||
G||------7--7~---|--7--7--7--9B-----|----------7----|-------------||
D||--7h9---------|------------------|------------10-|--10-9--7----||
A||--------------|------------------|---------------|----------10-||
E||--------------|------------------|---------------|-------------||
D G
Najveci lupez o casti trabunja,savesti nema ,pa nema ni mrlja,
D G
svakom je svoje govno dunja, govnovalj svoje govno kotrlja.
D G
Simbol cednosti je radodajka, prljavi ves se jos vise prlja,
D G
lep Kvazimodo,ljubi ga majka, govnovalj svoje govno kotrlja.
C G D G
Govnovalj svoje, govno kotrlja.
C G D G
Govnovalj svoje, govno kotrlja.
Intro
D G
Narod ne vidi dalje od nosa, jeftina krdza,jeftina brlja,
D G
naivna celjad,gola i bosa, govnovalj svoje govno kotrlja.
D G
Kloniran majmun,lokalni mocnik sa zadovoljstvom ruke trlja,
D G
on je Velikog Brata pomocnik, govnovalj svoje govno kotrlja.
C G D G
Govnovalj svoje, govno kotrlja.
C G D G
Govnovalj svoje, govno kotrlja.
Solo
D G
Poraz u gostima,poraz kod kuce, FK Buducnost u propast srlja,
D G
81
bice smaknuce u svanuce,govnovalj svoje govno kotrlja.
D G
Najveci lupez o casti trabunja,savesti nema ,pa nema ni mrlja,
D G
svakom je svoje govno dunja, govnovalj svoje govno kotrlja.
C G D G
Govnovalj svoje, govno kotrlja.
C G D G
Govnovalj svoje, govno kotrlja.
RIBLJA ČORBA :: KO O ČEMU
Intro : D C G x3 A Em7 x2
A G#
Na vlasti je nova garnitura,
G A
demokrata i velikih znalaca
A G#
Popela se zato sto ih gura,
G A
mnogo sljama i kriminalaca
Pa zapusi usi i zazmuri,
paradira pleme guzicasto
Heroinom trguju panduri,
na ekranu sve je ruzicasto
REF:
D C G
Ko o cemu kurve o postenju,
D C G
vojska o skracenju vojnog roka
D C G
Ni reci o bedi i ponizenju,
A Em7 E5
o tvojoj sudbini odlucuje stoka
Cveta cvece, tece med i mleko,
sta sve nece papir da istrpi
Bolja je buducnost suvise daleko,
bodljikavom zicom svaler kondom krpi
Skupljaju se lovci uskoro ce hajka,
sprema se za napad pobesneli copor
Mnogima ce od njih zakukati majka,
kad pokazes zube i kad pruzis otpor
RIBLJA ČORBA :: KADA PADNE NOĆ UPOMOĆ!
Am G Dm Am
e-----------------------------------------------------5---5--------
h---------------------------------------------------------------5--
g----------5--------------5----------------5-7----5-7-------7-5----
d------5-7---7--------5-7---7-5--------5-7-------------------------
a----7--------------7----------------7-----------------------------
e--5--------------5----------------5-------------------------------
82
Am
Ja zivim na slepom koloseku, prosli su svi moji vozovi,
F Am
cito sam danasnje novine nisu izvuceni moji lozovi.
Am
Sunce izlazi i zalazi sve je kao i obicno,
F Am
kada o tebi ne razmisljam stvarno se osecam odlicno.
Refren:
Dm C Gm F
A kada padne noc ja zovem u pomoc,
C B
jer tebe nema tu.
C Gm F
Svaki novi dan ko smrt je dosadan,
C B Dm
jer tebe nema tu.

Intro

Am
Nisam dripac ni probisvet i ni zbog ceg nije me stid,
F Am
imam svoj mali svet i oko njega kineski zid.
Am
Sunce izlazi i zalazi sve je kao i obicno
F Am
kada o tebi ne razmisljam stvarno se osecam odlicno.
Refren:
Solo : Am - Gm - C - Dm - Am - B - C - Dm
RIBLJA ČORBA :: LUD ,''-
Intro gitara
E||---------------------------|---------------------------|
B||---------------------------|---------------------------|
G||-------7--6h7p6------------|-------7--6h7p6------------|
D||--7/9-----------9--9--7----|--7/9-----------9--9--7----|
A||---------------------------|---------------------------|
E||---------------------------|---------------------------|
|---------------------------|--------------------------|
|---------------------------|--7-----------------------|
|-------7--6h7p6------------|-----9--7--6--9--7--6-----|
|--7/9-----------9--9--7----|-----------------------9--|
|---------------------------|--------------------------|
|---------------------------|--------------------------|

|---------------------------|-----------14------14----------------------|
|---------------------------|--------------12---------------------------|
|--7--6-----------6--7p6----|------7------------------------------------|
|--------9--7--9---------9--|--7/9----9---------------11h12p11----11----|
|---------------------------|----------------------14----------14----14-|
|---------------------------|-------------------------------------------|
83
|----------------------------------|----------------------------------|
|----------------------------------|----------------------------------|
|------7---6h7p6---7---6h7p6---6---|------7---6h7p6---7---6h7p6---6---|
|--7/9---9-------9---9-------9---9-|--7/9---9-------9---9-------9---9-|
|----------------------------------|----------------------------------|
|----------------------------------|----------------------------------|
|--------------------------|---------------------------||
|--7-----------------------|---------------------------||
|-----9--7--6--9--7--6-----|--7--6-----------6--7p6----||
|-----------------------9--|--------9--7--9---------9--||
|--------------------------|---------------------------||
|--------------------------|---------------------------||
intro: H A E F#
uvod: H A E F# 2x, G#m G#m (F#) G#m
G#m (F#)
Napolju grad od pola kila
C# F# G#m (F#) G#m
Ja cekam svoga ljubljenog debila
G#m (F#)
Dezurni pandur i ja smo jedini
C# F# G#m (F#) G#m
Na arlaudzi i vukojebini
I sam se pitam gde mi je pamet
Pa da izadem na ovaj kijamet
Pici kisa, ja po kisi picim
Samom sebi ni na sta ne licim
preref:
C# H
Svasta mi obecava, a napolju mecava
A
Stanje se pogorsava, jer pocinje kosava
Rif strofe
E||-----------------------------------------------------------------------|
B||---------------------4----6--------------------------------------------|
G||---------------------4----6--------------------------------------------|
D||-------------6-------4----6----------------------6----6--4-------------|
A||--6----4--5-----6--------------6----4----5------------------6--5--4--2-|
E||--4-------------4--------------4---------------------------------------|
|-----------------------|--------------------|
|-----------------4-----|--6-----------------|
|-----------------4-----|--6--------3--------|
|--6----6----6----4--6--|--6--------4--------|
|--6----6----6-------6--|--4--------4--------|
|--4----4----4-------4--|-----------2--------|
ref:
H A
Bio bi lud sto posto kada bi kraj tebe osto
E F#
Ti nikad nisi kacila koliko si mi znacila
< strofa 1, 2>
< preref>
< ref>
84
< solo: G#m C# 4x D#>
H A E F#
Uuu-uaua-uuu-uaua-uuu-uaua-uuu 2x
< ref>
H
Bio bi lud...
A
Bio bi lud, lud, lud, lud, lud...
E
Bio bi lud...
F#
Bio bi lud lud lud lud...
H
Mama lud sam ja
A
Mama skroz sam lud
E
Sto posto, sto posto
F#
Sto posto lud
H
Skroz lud...
RIBLJA ČORBA :: NOJEVA BARKA
INTRO:
G-7-7------- -5-x-5-x-5-x-5-x
A-7-7-5-4--- x3 -5-x-5-x-5-x-5-x
E-5-5-----5- -3-x-3-x-3-x-3-x
A x3 + G
E|--------------------3------
B|--- -3-2------------3------
G|-2-2-----2~---------4------
D|-2-2----------------5------
A|-0-0----------------5------
E|--------------------3------
A
Iz oblaka kisa sipi
pa narasta Misisipi
A
iz oblaka kisa curi
pa narasta i Misuri
E
Raste sveta reka Gang
D
i naravno Jang-ceng-jang
E
Raste Rajna plavi Majna
D
svuda voda beskrajna
E
a i Visla,
D
a i Visla
A
85
Visla, je pokisla
A D
Da li je ljudski rod
A D
zasluzio Nojev Brod
A E
mozda je to samo varka
D stop
i ne postoji Nojeva Barka
intro
Plavi Dunav, plavi Sava
izlila se i Morava
da bi bilo vece zlo
poplavio Ho-Ang-Ho
napreduju Volga, Dnjepar
svaki dan do kilometar
velika se kisa slila
u dolini reke Nila
i sve je, bas sve je poplavila
Da li je ljudski rod
zasluzio Nojev Brod
mozda je to samo varka
i ne postoji Nojeva Barka
intro
Njujork plavi reka Hadson,
prasume su sad Amazon
Zambezi i Orinoko
i siroko i duboko
da stvar bude jos i gora
porasla su i sva mora
pogledas li na sve strane
vidis samo okeane
a kisa, prokleta kisa
nikako da stane

refren x2
intro
RIBLJA ČORBA :: ROKENROL ZA KUCNI SAVET
INTRO BASS:
------------------------------------------------------------
----7-7-----5------3-3------------5-5------------7-7-----5-- x2
--------7-7------------3-3-6----------5-5-8----------7-7----
5-5------------1-1------------3-3------------5-5------------
GUITAR RIFF1: PA F#5
-------------------
-------------------
------------------- x2
-------------------
-7-7-10-7-------7--
86
----------7-5-3----
Fis
Kada slusam dobre stvari,
A
Meni se u ritmu skace,
G Fis
Za komisije ko jos mari,
G RIFF1
Ja radio pustam jace
Kucni savet me proganja,
Svi me mrze iz dna duse,
Kazu dosta im je dranja,
G F#
I zidovi da se ruse.
Refren:
H
Jer Komsije ce da me biju,
G
Zbog preglasnog rokenrola,
A A5 A5
Pominju mi familiju,
H A5 G5 F#5
Teraju me dodjavola.
F#5 ritam pa A5 G5 F#5
solo
riff1
A ja pustam sve jos jace,
Naravno, i oni cuju,
I odvrcu mi osigurace
I iskljucuju mi struju.
Al' imaju jos problema,
Kako samnom da se bore?
Protiv mene leka nema
Ja imam tranzistore.
Refren
Riff1
SOLO + PRATNJA(H5 A5 G5 F#5)
E----------------7-------------------------------------------
H----------------------------------7--10--7--10up------------
G-----9up--9-7-------7-9-7-----9up---------------------------
D--------------9---9-----------------------------------------
A------------------------------------------------------------
E------------------------------------------------------------
E-----7---------------------------7------------------7-------------
H-------10-----------------------------------------------7-10-10up-
G----------9up--7-9---7-9-9up-7-----7-----9up-9--7-----7-----------
D-------------------9-----------9------------------9---------------
A------------------------------------------------------------------
E------------------------------------------------------------------
87
E-------------------------7-------------------------
H---10-7-10up--------7-10---7-10-7-----7------------
G----------------------------------9up---9up-7-9up--
D---------------------------------------------------
A---------------------------------------------------
E---------------------------------------------------
E---12up-12-10-12----------10--------------------------------
H-----------------12-10-12----12up---------------------------
G------------------------------------OVDJE UPADA RIFF--------
D------------------------------------KOJI JE ISPOD-----------
A------------------------------------------------------------
E------------------------------------------------------------
RIBLJA ČORBA :: SRBIN JE LUD
Uvod :
A F G A A F G A
-----------------------------------12-10-12-----------------------------------
--------------------------------------------13-12-13-12-10-9-10-12---13-12-10-
-9-7-9-------------------------------------------------------------9----------
-------10--9-10-9-7--6-7-9--7-9-10--------------------------------------------
------------------------------------------------------------------------------
------------------------------------------------------------------------------
Prelaz: C G A
A
Ne bi oni ni mrava zgazili,
C
oni nikad ne gaze mrave,
F
ali bi tebe unakazili,
G A
ali bi tebi, dosli glave.
Da li je moguce da ne vidis nista,
jesi li ocoravio,
izadji malo iz dvorista,
zar si zaboravio?
G A
Srbin je lud, Srbin je proklet.
Jednom ga ubijes, on hoce opet.
Srbin je lud, Srbin je proklet.
Jednom ga ubijes, on hoce opet.
Uvod + prelaz (C G A)
Zar su ti vrane mozak popile,
il' su ga dobro isprali,
onaj i ono Titovo kopile,
dzelati, a zrtve ispali.
Zivot kraj tebe protice,
Srbija u Evropi je,
ali to te ne dotice,
ma nek se vrate krvopije.
88
refren
SOLO + RIFF A F G A (x4)
refren
RIBLJA ČORBA :: TU NEMA BOGA$ NEMA PRAVDE
Intro:
G--6-4---4--------------
D------7---7-6-7-6-2-4--
Intro Riff:
a-11-9-7--9-7-6--7-6-2-4-
e-9--7-5--7-5-4--5-4-0-2-
fill 1: F#5 x2
D---4-----7^6~--
A---------------
E-2---2-2-------
F#m (fill 1)
Zora rudi, dan se svetli, javljaju se prvi petli
D E C#m F#m
Na pocinak kuci leti vestica na svojoj metli.
prelaz
G-6~-4~-----------
D-------7-6--2-4--
A-----------7-9---
fill 1 x2
F#m (fill 1)
Zivi bili, zivi bili imbecili i debili
D E C#m F#m
Blago tebi, blago meni, unistice nas kreteni.
Prelaz
Refren:
D A E
Tu nema Boga, nema pravde
D A E
I zato odlazim odavde
D A E
I nas ce ko nase oceve
E C#m
Zbog visih ciljeva
C#m F#m
nabiti na kolceve.
Intro
fill 1 x2
F#m (fill 1)
Ko god hoce ovde moze da hara i pustosi
D E C#m F#m
Sve kilavi Radovani i nejaki Urosi.
89
Prelaz
fill 1 x2
F#m (fill 1)
Dobar covek svako vece zabije mi noz duboko
D E C#m F#m
Za veceru usi sece, za dorucak vadi oko.
Prelaz
Refren
Za vreme solo druga gitara ide ovako:
D---4-----4----5----5----7-----7----4-----4--
A--------------------------------------------
E-2---2-2----3--3-3----5---5-5----2---2-2----
Refren
Intro
RIBLJA ČORBA :: KAD SAM BIO MLAD
Intro: Am
Am G
Sa trinaest sam popusio prvu pljugu
Am G
posle prve odmah i drugu
G Am
jer tad...tad sam bio mlad
S' cetrnaest sam popio prvo pivo
a posle piva sam pio sve zivo
jer tad, tad sam bio mlad.
G Am
Kad dobijem batine nisam kukao
G Am
bio sam tucen i ja sam tukao
G Am
jer tad....tad sam bio mlad.
Ja samo petnaest, ona ofucana
pala je ali bila je tucana
jer tad, tad sam bio mlad.
Sa sesnaest sam prvi put ponavljao,
pobeg'o od kuce i nisam se javljao
jer tad, tad sam bio mlad.
Malo sam lagao, bio sam nagao,
nikome nocu nisam polagao
jer tad, tad sam bio mlad.
RIBLJA ČORBA :: JA SAM ROĐEN NAMRGOĐEN
C5 D5 A5
90
Ja sam rodjen namrgodjen
C5 D5 A5
zelim da se razveselim
G5 A5
trazim smesno, ne uspesno
G5 A5
manjak srece se namece
F5 A5
niz problema smeha nema
F5 A5
ko ih resi, taj se smesi
Sav sam zbunjen i pokunjen
na sve kivan depresivan
sve je mracno beskonacno
sav sam sludjen i otudjen
uvek takav sam nikakav
mnogo siva perspektiva
F5 D5 A5
Nece biti bolje
F5 D5 A5
Pun sam mrzovolje
D5 C5 A5 G5
zivot je mnogo kvaaraan
F5 A5
ja sam razocaran
F5 A5
ja sam razocaran
Stalno sebe lozim
da se raspolozim
da nesto lepo cuujeem
da se obradujem
da se obradujem
RIBLJA ČORBA :: (AJDE BEŽI
Intro: G A A# A G A
I deo:
C Dm C Dm
Ja bled k'o krec
C Dm E
Od bola sam se prosto gusio
C Dm C Dm
Jos saamo rec
C Dm E
I znam da bih se odmah srusio
II deo:
G F
Zelim ti cistu savest
E F
Sa mirnim snovima
G F
Ljubav i sveze meso
E G Am
Deli sa nekim novima
91
REF:
E Dm E Am
Uuu.. 'ajde bezi! Uuu.. napolje!
E Dm E Am
Uuu.. za nas to je! Uuu.. najbolje!
G F Am
Hocu da budem malo sam
Opet intro riff.
I deo:
Ti znas, ja znam
Prezivecu i sve u redu je
Da budem sam
To meni tako valjda sleduje
II deo:
Necu ti nista reci
Tuzan sam, nisam ljut
Zalupi jako vrata
Bolje pozuri, srecan put
REF.
SOLO
REF.
RIBLJA ČORBA :: ,. NOĆI
Am
On je sasvim obican ljudski stvor
Am
voli erotski razgovor
Am Dm
da li je vrlina ili nedostatak
E
al' cesto mu je skakao patak
Am G F E
16 noci je radio on
Am G F E
i koristio telefon
Am Dm
kad je dosao sedamnaesti dan
E
on vise nije bio slobodan
I bolje je hrkao
nego sto ga je drkao
ali ne moze preko pisama
sa cvrstim guzama I velikim sisama
16 je noci radio tek
a riba nema ni za lek
on hteo nije da se krije
postoje I vece drkadzije
Kad su na firmu racuni stigli
njega su policajci digli
92
sad je u zatvoru godinu dve
zbog telefonske onanije
16 noci je vrlo strucno
i na zalost svojerucno
zamisljene ribe jebavao
a bolje da je spavao

RIBLJA ČORBA :: /ALO
Uvodni riff C#
|-------------------------------|
|-------------------------------|
|-------------------------------|
|-------------------------------|
|---------9--10------10--9------|
|-9-9-12---------9-9--------12--|
Verse riff C#
|------------------------------------|
|------------------------------------|
|------------------------------------|
|------------------------------------|
|---------9--10------10-10-9-9-------|
|-9-9-12---------9-9-----------12-12-|
U kupeu citao sam novine
Voz je napustao stanicu
A vetar salje pozdrav iz domovine
I konacno sam presao granicu
H C#
Siroki auditorium
Peva oratorijum
Ja iz dalekih predela
Posmatram tuda nedela
A H riff C#
Alo prepoznajes mi glas
Alo kako je dole kod vas
Alo ko vas cuva od zla
Alo nedostajem li ja
Pevao sam na trgu republike
I svi su me tapsali po ramenu
Bilo je i puno publike
Al brzo su im pronasli zamjenu
RIBLJA ČORBA :: AMIN
Intro klavijature:
e-15---13-12-13--12-----15---13-12-13--12-----15-13--12-----13-12--------12----
H-------------------13--------------------13------------13--------13-15-----13-
RIFF C (ritam kao mornar od yu grupe)
C5(denf)
Zapali svecu za pokojne
93
za nasu izgubljenu srecu
nase su duse sad spokojne
G F
molim te, bar jednu svecu
G C
bar jednu svecu.
C
Ja ti pomoci stvarno ne mogu
misli na buducu decu
Idi u crkvu pomoli se bogu
G F
I naravno i svome svecu
G(stop) C
i svome svecu
F
Na dnu svake jame came kosti same
G
i govore kosti boze im oprosti
F
Na dnu svake jame came kosti same
G
boze oprosti im sve
C F G
Tako mi srece i ocinjeg vida
C F G
Tako mi dodira i sluha
C F G
U ime oca i ime sina
F
i svetog duha
G C (G se 2 puta brzo okine)
AMIN!
Prva strofa ponovo
Na dnu svake jame.
refren

RIBLJA ČORBA :: CARE
INTRO:
Em X3 + (D)
E|--------------------------------
B|--------------------------------
G|--------------------------------
D|-2-2-2-0h2~--------2-2-2-4~-----
A|-2-2-2-------------2-2----------
E|-0-0-0-------------0-0----------
Em D
Kada gospodar postane car
A Em
svi ce mu redom uci u cmar
Em D
crvena banda stat' ce u red
94
A Em
a red ce biti u nedogled
intro x2
Jer to i jeste velika stvar
prvi na svetu crveni car
bice i nereda bice i tuce
koji ce dublje da se uvuce.
Refren x2:
C G
Bice u cara prepuno telo
C G
sit' ce mu carevo novo odelo
C G
glavom ce svojom svako da plati
F A
ko pita care koliko je sati.
Kako car prdne po kojem slugi
ispadnu jedni a udju drugi
oni su sretni,cvileci puze
ne bi li stigli do carske guze.
I nikom od njih ne smeta smrad
moraju uci u cmar kad tad
tek onda mogu da se smire
kad im iz guze nogice vire.
SOLO: (pratnja= intro+verse)
A car ce veselo da se trpi
jer njegov mandat traje do smrt
kada gospodar postane car
svi ce mu redom uci u cmar.
F
Care, care gospodare
A
koliko je sati ...
koliko je sati ...


RIBLJA ČORBA :: DANAS NEMA MLEKA
|-5-7-8-7-5----------5-----------5--------------|
|-----------8-8-5-8----5-3-3-5-----5-3-3-5------|
|------------------------------2-----------2----|
|-----------------------------------------------|
|-----------------------------------------------|
|-----------------------------------------------|
Am C
Danas nema mleka danas nema hleba
E Am E Am
Zato jedi govna mozda tako treba
Nece te pretuci samo dobar budi
Danas nema nikog danas nema ljudi
A G
95
Danas nema sunca Danas nema neba
D E A
Ni sam sebe nemas ali tako treba
Danas samo stoka gleda ispod oka
Odvali ti pendrek i baci u jembek
A E D E
Ja nemam snage, nemam pojma, nemam nista
A E D
Pa zato odo' ja u vecna lovista
A E D E
I bolje odo' ja u camov sanduk drven
D E
Nego da sam crven
Danas nema struje danas nema vode
Ne sme da se cuje nema ni slobode
Siptari se kote jebem te, zivote
Kod njih ima beba ali tako treba
Danas nema love stampaju se nove
Danas nema casti ali ima vlasti
Meni nije jasno ko me tako sjeba
Lipsavam k'o pas ali tako treba
Ja nemam snage..
Jer danas nema mleka danas nema hleba
Zato jedi govna mozda tako treba
Meni nije jasno ko me tako sjeba
Lipsavam k'o pas ali tako treba
Lipsavam k'o pas..
RIBLJA ČORBA :: DECA
Intro : D
D
Gledam slike kad sam bio deca
Nikad vise necem biti mali
Em D
Pa me nesto u srcetu streca
Em F#m G A D
Biti mali,to mi mnogo fali
Nosio sam kratke pantalone
Mnogo lepo stajale mi one
Nisam im'o bore,bio dlakav
Naivan i dobar,skroz sam takav
REF:
D A
Ako moze hteo bih da platim
D A
Da se samo malo tamo vratim
C Em
Nije red da budem sed
Em F#m G A D
Ja sam rad da budem mlad x2
96
A ja mali,Boki su me zvali
Svoga tate omiljeni sinac
Bombonu i cokoladu dali
Mnogo lepo kad sam bio klinac
Cvrgove mi lupali u sali
To je zato sto sam bio mali
Sad sam zaso u godine pozne
Pa ne mogu da nosim spilhozne
Sad matoro, mada joste zivo
Smrducam na rakiju i pivo
Zbog cega su mene zajebali
Pa ja vise nikad nisam mali
RIBLJA ČORBA :: DOBRO JUTRO
e|---------------0-------------------------------2----------3----
H|-----------1-----1--------1------------1---------1------0---0--
G|-------------0----0-----0---0--------2---2---2--------0--------
D|--------------------2~3-------3~2--3-------0-------------------
A|--0-2~3--------------------------------------------------------
E|-----------------------------------------------------3---------
Ovako se svira kroz celu pesmu!!!
C F D7 G
Svanulo je iznad crkve Svetog Marka
C F D7 G
Cistaci u zutom ulice su prali
C F D7 G
Kuci su se vukli parovi iz parka
C F D7 G
Sta smo mogli mi smo jedno drugom dali
G C Fmaj7 C Fmaj7
Dobro jutro
Otresas sa sebe lisce i prasinu
Struzem s pantalona ostatke od blata
Polako i sigurno bezis u tisinu
Cekaju te dole taksisti kod JAT-a
Dobro jutro
F G C
Cele noci ti si forsirala konjak
F G a
Jutro kvari sinoc zapocete veze
F G C
Zorom si me sutnula k'o poslednji dronjak
F G a
Ja sam ti uz pice dosao k'o meze
Dok veselo cvrkucu pticice sa grana
Sakrivas rukama razmazano lice
U ustima vucem trulez od duvana
U daljini laju dzukci lutalice
Dobro jutro
Cele noci ti si forsirala konjak
Jutro kvari sinoc zapocete veze
Zorom si me sutnula k'o poslednji dronjak
97
Ja sam ti uz pice dosao k'o meze
RIBLJA ČORBA :: DVA DINARA DRUŽE
Am Am9 Am10 Am9 Am Am9 Am10 Am9
Decurliji nasoj smisljasmo imena,
Am Am9 Am10 Am9 Am Am9 Am10 Am9
Voleh je sve vise svaki bozji dan,
C G Am Am9 Am10 Am9
Ubedih se najzad, to je prava zena!
C G F Am Am9 Am10 Am9
Zajedno smo stedeli za stan.
Sedeo sam tako sam za nasim stolom,
Sve sto iole vredi, palo je u vodu,
Opet me je zensko napravilo volom,
Igrao sam samo epizodu.
Refren:
G
Htedoh da zaurlam, strcao sam dole,
Am Am10 Am10 Am9
Nisam mog'o da izdrzim duze,
G
Socijalni slucaj, pred vratima WC-a,
F Am Am9 Am10 Am9
Rekao je - Dva dinara druze! Dva dinara druze.
G
"Mala nuzda jedan, a velika dva,"
Am Am9 Am10 Am9
Pogledom ga sasekoh k'o macem,
G
"Izvinite molim", pitao sam ja,
F Am Am9 Am10 Am9
"Kol'ko kosta kad unutra placem"?
Druga strofa
Refren
RIBLJA ČORBA :: EVO TI ZA TAXI
Hm G Hm Fis Hm G Hm Fis
Priguseno svetlo, prava atmosfera,
Hm G Hm Fis Hm G Hm Fis
Sa suprotnog zida, smeje mi se senka,
Hm G FisHm G Hm Fis
Pusim u maniru iskusnog svalera,
Hm G Fis Hm G Hm Fis
A kraj mene prede zadovoljna zenka.
Refren:
A
Cekam da se dignes i pokupis stvari,
Hm
U meni jos samo praznina postoji,
A
Umoran sam duso, evo ti za taxi,
98
Hm
Hajde podji kuci, brinuce se tvoji.
Stavicu jos jednu, besmislenu recku,
Uspehom se smatra valjanje u mraku,
Sutra u kafani, ispricacu podvig,
Nekom sebi slicnom, sujetnom ludaku.
RIBLJA ČORBA :: GDE SI
INTRO:|C |G Ab|Am |G |
C G G G#
I danju i nocu, ne podnosim samocu
Am G
jedino sto znam, najgore je biti sam.
Umor lako moze da me s nogu obori
treba mi tvoj osmeh da me odmori.
(G) C G Am G
Hej gde si, _na kojoj si adresi
C G Am G
i dalje ___ja pamtim sve detalje
C G F
znam da bez tebe, ne mogu i necu
G G
jos uvek trazim izgubljenu
G7 G
izgubljenu srecu.
Priznajem da se brinem, da teret sa srca skinem
i retko ko shvata da mi je tvoja omca oko vrata.
Bilo je pravih osecanja, bilo je laznih obecanja
ne moze nista da se menja, mnogo je razocarenja.
Hej gde si, na kojoj si adresi
i dalje ja pamtim sve detalje
znam da bez tebe, ne mogu i necu
jos uvek trazim izgubljenu
izgubljenu srecu.

RIBLJA ČORBA :: JEDINO MOJE
Am C G Am C G
e---5----------------3----------5--8-7-5-------------3---3---------]
H------------3--5---------------5-----------5---5--------3---------]
G------5-------5--------4-------5--------------5-------4-----------]
D-----7-------5--------5----------------------5------5-------------]
A----7-------3--------5---------------------3----------------------]
E---5----------------3---------------------------------------------]
A5 C5 G5 D5 A5 G5 1.X 2.X
e-------------------------------]------------------=---------=---]
H-------------------------------]------------------=---------=---]
G------XX-55--------------------]--77--------------=---------=-4-]
D--77--XX-55--0--55-------------]--77--xx-77----55-=-----2---=-4-]
99
A--77--XX-33--0--55--2h3p2h3p2--]--55--xx-77----55-=-2-5---2-=-2-]
E--55---------0--33-----------3-]------xx-55--0-33-=---------=---]
I sve je islo kao po loju
Dok sam te imao kao moju
To nije mogla biti bilo koja
Sve dok si bila moja
D A
bolje ne mogu da postoje
G Hm
Od ove samo jedine moje
Bili smo samo nas dvoje
O moje nekada jedino moje
Riff x2
riff
K'o Indijanac stavljam ratnicke boje
Da te osvojim, jedino moje
Ljudi matore, boraju se, goje
A ti jos lepa, jedino moje
Riff2
Kad bi bio potop, a ja da sam Noje
I tebe bih poveo, jedino moje
Bilo je zena da nema broja
Al' samo ti si bila moja
Intro
Grci zbog ljubavi unistili Troju
Ja bi sve srusio za ovu moju
Losi krojaci sudbinu kroje
Zasiven za tebe, jedino moje
Niko me nije izbacio iz stroja
Jedino ti ljubavi moja
Mnogo je suza krvi i znoja
Proliveno zbog tebe jedina moja
Riff x2
riff
Ja nemam mira, nemam ni spokoja
Kad sam bez tebe, jedina moja
Ja sam ranjen, rane se gnoje
Gde si jedino, nesrecno moje
Riff2
I oko rana muve se roje
A tebe nema jedino moje
Mozda je djavo dos'o po svoje
Zbogom najlepse, jedino moje
Ja sam ranjen, rane se gnoje
Gde si jedino, nesrecno moje
Mozda je djavo dos'o po svoje
Zbogom najlepse, jedino moje
SOLO:
e--------]---8^(10)--------8-10-12-10-8-10p8---------------8p7-----8--]
H---12---]--------------10-------------------10-8-10-----10---10------]
G--------]------------------------------------------------------------]
D--------]------------------------------------------------------------]
100
A--------]------------------------------------------------------------]
E--------]------------------------------------------------------------]
e---10^(12)-(12)^10p8----------8-10^(12)------------------------------]
H---------------------10----10----------------------------------------]
G---------------------------------------------------------------------]
D---------------------------------------------------------------------]
A---------------------------------------------------------------------]
E---------------------------------------------------------------------]
e---12--12-10---------------------------------------------------------]
H-------------13-(13)^12-----13p12-10----10---------------------------]
G-------------------------------------12------------------------------]
D---------------------------------------------------------------------]
A---------------------------------------------------------------------]
E---------------------------------------------------------------------]
e--------------10-------8p7----8-12-17--------------------------------]
H---10-12-13----------------10----------------------------------------]
G---------------------------------------------------------------------]
D---------------------------------------------------------------------]
A---------------------------------------------------------------------]
E---------------------------------------------------------------------]
RIBLJA ČORBA 0 KO O ČEMU
Intro : D C G D C G A Em7
A G#
Na vlasti je nova garnitura,
G A
demokrata i velikih znalaca
A G#
Popela se zato sto ih gura,
G A
mnogo sljama i kriminalaca
Pa zapusi usi i zazmuri,
paradira pleme guzicasto
Heroinom trguju panduri,
na ekranu sve je ruzicasto
REF:
D C G
Ko o cemu kurve o postenju,
D C G
vojska o skracenju vojnog roka
D C G
Ni reci o bedi i ponizenju,
A Em7
o tvojoj sudbini odlucuje stoka
Cveta cvece, tece med i mleko,
sta sve nece papir da istrpi
Bolja je buducnost suvise daleko,
bodljikavom zicom svaler kondom krpi
Skupljaju se lovci uskoro ce hajka,
sprema se za napad pobesneli copor
Mnogima ce od njih zakukati majka,
kad pokazes zube i kad pruzis otpor
101
RIBLJA ČORBA :: MUZIČARI KOJI PIJU
H F# H
Muzicari koji piju nikad nisu patili od treme
H F#
Muzicari koji piju nikad nisu stizali na vreme
H
Muzicari koji piju nisu patili
E F
Popili su isuvise da bi shvatili
H F# H
Muzicari koji piju nikad nisu patili od treme
H F# H
Muzicari koji piju imali su hiljadu vrlina
H F#
Muzicari koji piju nikad nisu znali gdje je bina
H
Ali oni nisu zato mnogo patili
E F
Popili su isuvise da bi shvatili
H F# H
Muzicari koji piju nikad nisu znali gde je bina
REF:
E
Svirali su bombica po glavi stanovnika
H
Alkohol za svakog bolesnika
H F#
Muzicari koji piju najvise su voleli baladu
H F#
Muzicari koji piju nikad nisu znali u kojem su gradu
H
Muzicari koji piju skovali su plan
E F#
Svirali su dok sve nisu isterali van
H F# H
Muzicari koji piju najvise su voleli baladu
Prva strofa ponovo
refren
RIBLJA ČORBA :: NEMOJ SREĆO NEMOJ DANAS
G D Em C D
E----------------------------------------|
H----------------------------------------|
G-----0-0------2------------------2------|
D----------0-4-------2-2--5-2-------4----|
A-----------------------------3-------5--|
E--3---------------0---------------------|
G D
Dan tmuran, ja mamuran,
Em C D
102
Nemoj sreco, nemoj danas,
G D
Da ispravljas krive drine,
Em C D
Mozes doci do istine,
G D
Pusti ladje neka tonu,
Em D
Daj mi sodu...
G D Em C D
Bikarbonu!!! Wooo!
Wooo!
Ti si kriva zbog mog piva,
Nemoj sreco, nemoj danas,
Mi smo danas, blago meni,
poprilicno promaseni.
Ima mnogo losih dana
Kod ljubavnih...
Veterana!!!
Wooo!
Intro x2
Ref:
C
Mi smo, eto, blizu kraja,
Em
Jedan korak od ocaja.
C
Cuvaj malo nade za nas,
D
Nemoj sreco, nemoj danas,
Nemoj sreco...
G D Em C D
Pa nemoj danas...
(Nemoj danas, molim te...Danas me puti na miru...
Jutro ce promjeniti sve... Idi negde plesi, idi molim te
negde plesi...)
Bolje spreci ruzne reci,
NEMOJ SRECO, NEMOJ DANAS!
Nase greske u tisini
Nisu jos na povrsini...
Mene neki djavo tera,
Skuvaj kafu...
BEZ SECERA!!!
Wooo!
(Pa pusti me, jel' sam ti lepo rekao, molim te pusti me danas!
Nemoj da me diras! Nemoj!)
(Nemoj! Ma nemoj! Idi! Ostani djubre do kraja!
Pusti me! Molim te! Dolazim za pet minuta...)
RIBLJA ČORBA :: OSTAĆU SLOBODAN
intro: C/A(x0555x) , Am x4
Am
103
One hoce da me vezu
C/A
Svakog dana sve su jace
F G
Obruc oko mene stezu
C E
pohotljive udavace
Oni hoce da me uce
Pa da budem ko i oni
Ali nisam ja od juce
Smetaju mi svi sabloni
Ref x4:
Am F Dm
Ostacu slobodan, necu se vezati
E Am
Vazno je samo dobro se zezati
< uvod>
Oni hoce, a ja necu
Da me smire bez potrebe
Izem ti ja takvu srecu
Kad izgubim samog sebe
< strofa 1>
< ref>
RIBLJA ČORBA :: PLAJVAZ
Nikoga nisam poznavao,
samo sam jeo i spavao,
sam bez igde ikog,
makar malo bliskog.
U gradu ispod Avale
sve su me izbegavale,
kao da sam ne daj Boze gubav,
sa koliko nula se pise ljubav?
RIFF A G B E (x2)
RIFF A G
Uzo lekar plajvaz,
B E
i napiso nalaz:
A G
Mozak skoro neprimetan,
B E
idiot i to kompletan,
A G
retardiran,zakrzljao,
B E
bas je tako nazvrljao,
A G
i u razvoju ometen,
B E
skolski primer-dete kreten.
RIFF A G B E (x2)
104
Kao uran osiromasen,
bio sam dibidus promasen,
na poraz unapred osudjen,
usamljen i otudjen.
Lut'o sam ko gluva kucka
i dosao do zakljucka:
Surova je ovo stvarnost
kada nemas popularnost.
RIFF A G B E (x2)
Refren
RIFF A G B E (x2)
Nisam ja ni lep ni ruzan,
al' sam dobro naoruzan.
Pucao sam,jer se bojim
da misle da ne postojim.
Sa krova Beogradjanke
na gradjane i gradjanke
kao sve masovne ubice,
pucao sam nasumice.
RIFF A G B E (x2)
Refren + RIFF
Ubijenih dvadesetak,
ispaljen posljednji metak.
Bacio sam pusku praznu
i trazio smrtnu kaznu.
Stigao sam do novina,
do zatvora,do Kovina.
Poslove nemaju prece,
mene zdravog tamo lece.
RIFF A G B E (x2)
RIBLJA ČORBA :: ZELENA TRAVA DOMA MOG
Solo:
G G7 C G D7 G
E|---7-8-10~-7-8-7---------------------------8-7----------|
H|-----------------10-8~-7-8-10-8-7-----8-10-----10-8~----|
G|----------------------------------9-7-------------------|
D|--------------------------------------------------------|
A|--------------------------------------------------------|
E|--------------------------------------------------------|
G
Moj rodni grad je tamo dole
C G
a tamo dole svi me vole
D7
ispred vrata cekaju mama i tata
105
Ref x2:
G G7
Ispred kuce ruke siri Meri
C
ja joj kazem 'ajd' ne seri
G
ja idem da vidim
D7 G
zelenu travu doma mog
intro +solo
evo me stizem iz daleka
gde trava nije bas i neka
kraj rodne reke ima lepe trave meke
Ref x2:
mene ceka cela familija
'ocu da ih vidim i ja
al' sad je preca
zelena trava doma doma mog
intro +solo
jebi ga
onda sam sam se probudio
i sam sam se sebi cudio
i zamalo da me strefi slog
video sam cetiri zida me okruzuju
i shvatio da me optuzuju
sto sam tajio da sam gajio
zelenu travu doma mog
Ref x2:
oce da mi rikne moja cuka
oce da me strefi slog
sto ne mogu da vidim
zelenu travu doma mog
PRLJAVI INSPEKTOR BLAŽA I KLJUNOVI :: DISKO MIKS
G
Pune tribine ludih navijaca
G D
I baklje svetle ceo sever gori
D
Bubnjevi tutnje i pesma se ori
D G
Jedite govna mi smo sampioni
Ale, ale...
G D G D
Sad si uz'o trofej Paspalje, Paspalje, Paspalje x4
G D
Jednog dana na ulicu itrcao Iva \
D G \ x2
106
Sav zadihan zahuktao ko lokomotiva \
G D
Cihu, cihu, cihuhu \
D G \ x2
Cihu, cihu, cihuhu \
Videli ga drugovi pa za njim i oni
Istrcali zahuktali ko pravi vagoni
G D
Kad si srecan pljesni tada dlan o dlan
D G
Kad si srecan pljesni tada dlan o dlan
C G
Kad si srecan i kad zelis s drugim delit srecu tu
D G
Kad si srecan pljesni tada dlan o dlan
Kad si srecan prstima pucketaj ti
Kad si srecan prstima pucketaj ti
Kad si srecan i kad zelis s drugim delit srecu tu
Kad si srecan prstima pucketaj ti
PRLJAVI INSPEKTOR BLAŽA I KLJUNOVI :: SUNCE TUĐEG NEBA
G Em
Vozim mecku, kroz planine
D C G
mezim luka, hleba i slanine.
G Em
Gledam njive, proplanke i polja
D C G
srce lupa jace, to je zemlja moja.
Refren x2:
G D
Srbijo, Srbijo
Em C
suzu sam, pustio
G D
stara majko,sine, snajko
Em G
vracam se u nas dom.
U krivini,cepam dvesta
zurim ja da stignem, do mog rodnog mesta.
Tudjina je, sad proslost daleka
na kapiji kuce, rodbina me ceka.
Refren
Radio sam tesko,cedrdeset leta
blizi mi se evo sezdeset i peta.
Kosa mi je postala sva seda
otiso ko klinac, vracam se ko deda.
Refren x2
Evo me Srbijo,
jer kokicu i zalogaj hleba
107
i ne greje sunce tudjeg neba
kao sto greje sunce nase
evo me vracam se.
PRLJAVI INSPEKTOR BLAŽA I KLJUNOVI :: TO JE SAMO R(N(R
A5
Ladies and gentleman - drugarice i drugovi,
tonight with us - veceras sa nama,
the greatest rock 'n' roll band from all over the world -
jedna od najboljih grupa svih vremena,
Dirty inspector Blaza and his kljuns - ovo znate sta znaci,
And his special guest are:
G5 D5
Dragi Jelic on the solo guitar and the vocal.
A5
Svetla kad se pale, kad cujes zvuk gitare,
G5 D5
tada reci sebi nisu vazne pare.
Pare ces da spiskas, slava ce da prodje,
alkohol ce jednom glave da ti dodje.
Zato pazi Blazo, cudna je suma to,
kriticari publika te cekaju na noz.
Moras biti hrabar, moras biti jak,
ako nisi pazljiv pojesce te mrak.
E5
A kad jednom puknes pomisli na to
kad sam tebi rek'o:
A5
To je samo rock 'n' roll!
Svaki tvoj savet Dragi para vredi,
nisu valjda dzabe brkovi ti sedi.
Sviras kao Hendrix a pevas ko ???????
tekstove ti pises bolje nego Dilan.
Kad te vidim Dragi s' tvojim bratom Zikom
opcinjen sam vasim i telom i likom.
Poslusacu savet starijeg kolege,
za mene si Dragi veci i od Brege.
A kad jednom puknem seticu se
tog sto si meni rek'o:
to je samo rock 'n' roll.
Da rezimiramo:
Svetla kad se pale, kad cujes zvuk gitare,
tada kazem sebi nisu vazne pare.
Pare ces da spiskas, slava ce da prodje,
alkohol ce jednom glave da ti dodje
Zato pazi Blazo, cudna je suma to, (znam),
kriticari publika me cekaju na noz.
Moras biti hrabar, moram biti jak,
ako nisi pazljiv pojesce te mrak.
A kad jednom puknes pomisli
na to sto si Dragi rek'o:
to je samo rock 'n' roll!!!
108
PRLJAVI INSPEKTOR BLAŽA I KLJUNOVI:: VRANJANKA
E Dm E
Volela me jedna vranjanka.
E Dm E
Kraj nje mi je dus"a ostala.
E7 Dm E
Nit' je Sofka, nit' je Kos"tana,
E7 Dm E
Vec' najleps"a Jela, Jelena.
E7 Dm E
Nit' je Sofka, nit' je Kos"tana,
E7 Dm E
Vec' najleps"a Jela, Jelena.
Refren:
F E
Pusto!
F E
Pusto!
F E Dm E
Pusto mi je sve!
F E
Nema!
F E
Nema!
F E G Am
Nema moje Jelene!
Dm
Dodji!
Dodji!
E
Dodji Jelo Jelena!
E A E
Ti si moje srce odnela!
Sve bih dao kad bih saznao,
Ko je moju Jelu ukrao
.....
Od svih lepsa Jela, Jelena.
Refren
PRLJAVI INSPEKTOR BLAŽA I KLJUNOVI :: ČEKALA SAM$ ČEKALA SAM
Glavna tema:
e |-------------------------------------------|
h |-------------8--8v--x--7--5--7--5--7p5-----|
g |-------------9--9v--x--7--5--7--5--7p5-----|
d |-------------7--7v--x--7--5--7--5--7p5-----|
a |---------0---------------------------------|
E | ------------------------------------------|
A D
Cekala sam, cekala sam, dragog citav dan
Da mi nocas svrati, ljubav da mu dam
Uzalud ga cekam, on je na me ljut, jee
Cekacu ga, cekacu ga, makar uzalud
ref:
109
D
Ma dragi stoj,stoj, jeee
A
Ma dragi stoj, stoj, vrati se
D
Ma dragi stoj, stoj, ti si moj
E
Ako me ti neces, hoce drugar tvoj
Intro
A D
Cekala si, cekala si, mene citav dan
Da se nocas vratim, ljubav da ti dam
Uzalud me cekas, ja sam na te ljut
Cekaces me, cekaces me, makar uzalud
ref:
prelaz:
D A
Ljubila bih i ja tebe dragi, al mi majka brani
D E D
Jer u srcu mom si samo ti.. samo ti...
Samo ti, u jeee..
Samo ti..
A D
Cekala si, cekala si, dragog citav dan...
PRLJAVI INSPEKTOR BLAŽA I KLJUNOVI :: SEX$ DROGA$ BODIROGA
INTRO: |A |A |
|G D |A | u ritmu solaze
Riff koji ide na A
A
E|--5----------5--5---------|
B|--5--7--5~-5-5--5-7~-5br--|
G|-----7--5~-5------7~-5br--|
D|--------------------------|
A|--------------------------|
E|--------------------------|
A
Sta je dobro sta nam treba
da se vinemo do neba
G D A
daj igara ne treba nam hleba.
Mi imamo svoga boga
ime mu je Bodiroga
Na parketu on je baba-roga.
To je ono sto nam fali,
to je ono sto nam treba
daj igara ne treba nam hleba.
G D A
110
Sex, droga Bodiroga...
Sex, droga Bodiroga...
to je ime moga boga.
G D E
Sex, droga Bodiroga...
SOLO: ...

PRLJAVI INSPEKTOR BLAŽA I KLJUNOVI :: PRLJAVI %ARI
Uvod: Am, Am, Am, Am G
Strofa:
Am F
Zovem se Prljavi Hari
Am F
Moj posao je policajac
Am F
I rodjen sam da budem zao
C G
Prema svakome ko je kriminalac
Radim u San Francisku
Ma koja je to rupa od grada
Lopovi, ubice i propalice
Ma sta da vam pricam -
- sve gad do gada!
Refren:
C F
A ja imam magnum forti fajv
C F
On pravi veliku rupu na srcu
C F
Kada on grune onda baj, baj
G
Lopovska krv tece niz ulicu
Ponekad za vece ubijem i deset ljudi
A posle toga mirno odem na kafu
Dok moj sef hoce da poludi
Kaze: "Hari, bar si mogao da im pokazes znacku"
A ja kazem: "Slusaj sefe, ne budi smesan
Ovaj je grad crnji i od noci
U njemu ne postoji nikakv zakon
Samo dobar metak medju oci"
Nemam nikog i zivim sam
U bednoj sobi tri sa tri
Spavam u nekom trosnom krevetu
Na kome su vec umrli mnogi
A kad s jutrom svane novi dan
Ja pomislim: "Hari, kol'ko ces danas ubiti hulja?"
Stavim kolt u futrolu
I krenem u prvu jutarnju patrolu
jutarnju patroluuu...
111
PRLJAVI INSPEKTOR BLAŽA I KLJUNOVI :: MNOGO VOLIM PIVO
uvod:
A A F# A A F# A A F# E DD D E
E---------------------------------------
H-10-10-7--10-10-7--10-10-7-5-3-3---3-5-
G-9--9--6--9--9--6--9--9--6-4-2-2---2-4-
D-9--9--6--9--9--6--9--9--6-2-0-0---0-2-
A-7--7--4--7--7--4--7--7--4-2-----2---2-
E---------------------------------------
RIFF "H"
e----------- ovaj dio se ponavlja
h----------- kroz cijelu pjesmu
g----------- i tako da svirate strofu
d-4-6-7-6-4- na ovom rifu i
a-2-2-2-2-2- gdje je vec potreban
e-----------
RIFF "H"
ljudi koliko volim pivo
najradje bi u njem plivo
kao zlato sija , hladno kao zmija
organizmu svakom prija
F# Gm E
a mala mi zanovetna kao da je propast sveta
RIFF "H":
jer volim volim mnogo volim pivo---2x
Uvod:
RIFF "H":
ispred radnje svi smo braca
kauciju svako placa
turu stize tura pivska armatura
b vitamin telom luta
a mala mi zanovetna nervozna po kraju seta
jer volim monogo volim pivo
PRLJAVI INSPEKTOR BLAŽA I KLJUNOVI :: LEPA SI PAMELA
INTRO: |A5 |C5 D5 |A5 |C5 D5 |
|A5 |C5 D5 |E | | X2
A5 C5 D5
Ti si cuvar nase plaze kad se dave tebe traze
Snalazljivija od mica jer on je mator cica
Plivas kao foka voda plitka il duboka
A5 E5
kao morska si sirena pola riba pola zena.
Poznata u svetu imas sajt na internetu
voli tebe staro mlado i ja bi tebe rado
Obuko u belo odveo na selo
da upoznas familiju sve u inat Tommy Lee-u
112
A5 G5 D5
Lepa si Pamela ljubitelj sam tvoga tela
A5 C5 D5
Tom dripcu Tommy Lee-u zavrnut cu bre siju
A5 G5 D5
Ako hoce da se sveti ili pocne da ti preti
A5 E5
reci poslat cu ti Blazu da ti skine tetovazu.
Intro
Ti si ljupka nezna krhka bas te gledam na ekranu
tvoje lepe male grudi volim ko marihuanu
Ali uhvati me frka jer znam kad dodjes kuci
onaj moron Tommy ce po njima da ceprka.
Poznata u svetu imas sajt na internetu
voli tebe staro mlado i ja bi tebe rado
Obuko u belo odveo na selo
da upoznas familiju sve u inat Tommy Lee-u
refren x2
Sta je bre Tommy majonezo jedan...

PRLJAVI INSPEKTOR BLAŽA I KLJUNOVI :: DABOGDA CRK+O ROCK+N+ROLL
intro:
e---/5-5--/5-5--5--|----------------|
b---/5-5--/5-5--5--|--8-7-5---------|
g------------------|--------7-5-0-1-|
d------------------|----------------|
a------------------|----------------|
E------------------|----------------|
rif:
e----------------|-----------------|
b----------------|-----------------|
g---2-------2-*--|-2-*-2------2-*--|
d---2-------2-*--|-2-*-2------2-*--|
a-------2-3------|--------2-3------|
E----------------|-----------------|
A
Ti mislis da ja piskim od srece
kad popnem se ovdje na stejdz
a gledam gazdu kako pijan tetura
D C A riff
i zamislja da je Pejdz, Aj, ja, ja
Ti mislis da sa vrlo bogat
A nemam ni butik ni pejdzer
A svako jutro skacem po kuci
I zamisljam da sam Dzeger Aj,ja, ja
Refren:
D
Ooo dabogda crk'o R'n'R
A
113
kad ga svako svira
D
Ooo dabogda crk'o R'n'R
A G D A
a i ja, a i ja, a i ja sa njima
prelaz riffovi iz refren
Ti mislis da smo mi neki heroji
sto niceg se ne plase
Al' ne znas kako se tesko sakrivat
kad posvuda lete flase Aj, ja ja
Ti mislis da ja jugo vozam
al' vise sam gladan no sit
a svako kaze podji do Blaze
dace ti novu shit, aj ja ja
refren
%LADNO PIVO :: TEŠKO JE #UL BITI KUL
Bass riff: (intro i tema)
-----------------------------------
-----------------------------------
-2-2-2-2-2-2-2-2-2-2-2-2-2-2-5-5-0- 2X
-----------------------------------
H (riff)
Nije lako kad si mamino zlato
Izgledati ovako opako
Nije lako ali mozda bas zato
G A F#
Prodju te trnci kad nabildani crnci repaju
D5 H5
.kratki rafali
Osjecas se tako mali
Jer gdje naci jake rime
G A F#
Kraj ovakve male domovine
Imas sempl, imas bit
Samo rijeci su ti lose
Mislis da bi imo hit
Da imas drugu boju koze
refren x2:
H5
Tesko je ful biti kul kad si tu
G5
Tesko je ful biti kul kad si tu
D5
Tesko je naci prave ribe
A5
kraj ovakve male domovine
D5 H5 x2
Nije lako kad si mamino zlato
114
Izgledati ovako opako
Nije lako ali mozda bas zato
Prodju te trnci kad nabildani crnci repaju
Rafalna paljba inflacija rijeci
I ti bi htio nesto reci
O svom mraku kvartu.
.
TINA :: IDI
Intro x4: Dm F C Gm
Dm F C Gm
Suvise kasno je sad da zaboravim ovaj grad
Dm F C
Da zaboravim dok te s` drugim gledam da te nema
Gm Dm
da me nema, da te nema da zaboravim
F C Gm
duge setnje nocu i reci, tvoja pitanja
Dm F C Gm - let ring
da zaboravim kako si me sa drugim varala
Ref x2:
F C
Idi nemoj mi lazi kriti
F C
idi nek` te on sad voli
Dm F C
idi mozda bolje ce biti
Dm F C
idi jer samo mene boli
Intro x4: Dm F C Gm (riffovi)
(riffovi)
I slusam noc ocekujem tvoje korake
dok ti sa drugim hodas zidovi pamte uzdahe
i ogledalo tvoj lik a lice meke jastuke
a ja, ja pamtim sve, a sve bile su prevare
refren x2 (riffovi)
Intro x4: Dm F C Gm
TINA :: LOZA
Uvod x4:
E|--12---12-10------------------|-----------------------------|
H|--------------12--13~---------|--12~------------------------|
G|--------------------------12--|----------11--11--12--11--9--|
D|------------------------------|-----------------------------|
A|------------------------------|-----------------------------|
E|------------------------------|-----------------------------|
C D G Em
Sve ovo vreme mozda sam joj bio
C D G H7
samo dobar drug
115
C D G Em
trcao za njom ko pas za strancem
C D Em
vracao tudji dug
C D G Em
Propio noci i propio dane
C D G H7
ispio svoju bol
C D G Em
oprosti stari sto ti opet sada
C D H-istrzavaj
ja pricam o njoj, o njoooj
Ref x2:
Em C G D
Zato me ne pitaj kako zivim
Em C G D
zato me ne pitaj gde sam nocu
Em C G D
Jos jednu naspi mi staru lozu
C D Em
I ne pitaj brate da li hocu
Uvod x4:
Ceo tekst ponovo
TINA :: VRATI JE
Uvod:
E|-------------------------|---------------------|------------------------|
H|-------5h6h5---5---------|---------------------|-------5h6h5---5--------|
G|-------------7-----------|--5------7-----------|-------------7----------|
D|--7-------------------5--|--5------7--------5--|--7---------------------|
A|--7-------------------5--|--3------5--------5--|--7---------------------|
E|--5-------------------3--|------------------3--|--5---------------------|
---------------------|------------------------|---------------------|
---------------------|-------5h6h5---5--------|---------------------|
--5------7-----------|-------------7----------|--5------7-----------|
--5------7--------5--|--7---------------------|--5------7--------5--|
--3------5--------5--|--7---------------------|--3------5--------5--|
------------------3--|--5---------------------|------------------3--|
-------------------------|----------------------|
-------5h6h5---5---------|----------------------|
-------------7-----------|----------------------|
--7----------------------|----------------------|
--7-------------------3--|--5--3----------------|
--5----------------------|--------5--3----------|
Am
Ko ranjena zver u zamku kad upadne,
Dm
ptica bez krila u letu kad ostane,
G F F
jos teze je kad nema nje,
Am Am
Boze vrati je.
Ko kad si mali pa ti igracke polome,
116
ko kad si velik,pa ti kicmu polome,
jos teze je kad nema nje,
Boze vrati je.
Dm(F) G Am
I sve se svodi na isti krug
F G Am
Strane zene u prolazu
Dm G Am
Pijani ljudi u ocaju
F G G
Onog kog nema cekaju.
Ref:
Am F C G Am F C G
Vrati je, vrati je, ona bila, bila je sve.
Am F C G F G
Vrati je, vrati je, o Boze...vrati je!
Intro
Ko sve kad prodje, ko san kad prestane
I samo bol, bol kad ostane
jos teze je kad neme nje,
Boze vrati je.
PSI%OMODO POP :: #RIDA
Intro: C E, F
C E F
Frida je bila moja kraljica - Frida, Firda
C G Am
Frida je bila moja kraljica - Frida, Frida
C E F
Frida je bila moja kraljica - Frida, Frida
Am F C G
Ali nitko nije bio njezin kralj ,o yeah
Ja sam radio a ona je cekala
Ona je cekala da padne mrak
Ona se cudila sto ne znam uzivati
Ja sam joj rekao: 'Hey honey nije to sam tak'
Pod nama su pucali kreveti
Mi smo se pucali dok ne pukne dan
Ja sam je gadjao al nisam pogodio
Taj joj metak nije dovoljan
Intro: C E, F
Frida ja ti nisam dida
Imas dobre usi slusaj kroz njih
Ti si bila moja jedina pracka
A ja sam bio samo sprit
Frida je bila moja kraljica - Frida, Frida
Frida je bila moja kraljica - Frida, Frida
Frida je bila moja kraljica - Frida, Frida
Ali nitko nije bio njezin kralj ,o yeah
117
POSLEDNJA IGRA LEPTIRA :: NATAŠA
uvod:
Hm Fis Em Fis (po 2 istrzaja pa stop) x2
Hm Fis Em Fis (ritam reggae) x2
Hm Fis Em Fis
Gledao sam belo jutro doshlo je polako
Hm Fis Em Fis
Oteralo nocne ptice svanulo tek tako.
Em Hm Em Hm
Al' ostao je kljuch od stana I papir od chokolade
Em Hm
Zaboravljen upaljac od soka prazna flasha
A Fis7 - let ring
Sve je tu
Refern x2:
Hm Fis Em Fis
A gde je Natasha muchi me to
Hm Fis Em Fis
A gde je Natasha joj joj joj joj
Hm Fis Em Fis x2
Hm Fis pa stop x4
Pobeg'o je zuti mesec otela ga zora
Nikom nije reko idem vratiti se mora
Al' ostao je kljuch od stana I papir od chokolade
Zaboravljen upaljac od soka prazna flasha
Sve je tu
Refren
PARTIBREJKERS :: %IPNOTISANA GOMILA
INTRO: (RIFF1) x4 (H5 F#5)
E|----------------------------------
B|----------------------------------
G|---4-4----------4-4-4-------------
D|---4-4---4-4----4-4-4---4-4-------
A|-0-2-2-0-4-4-0--2-2-2-0-4-4-0-(2)-
E|---------2-2------------2-2-------
VERSE:
H5(denf) RIFF1
Mi ne idemo nikud i ne radimo nista
mi smo jedna velika hipnotisana gomila
al' ja znam kljuc ja poznajem tu bravu
otkljucat' cu i stavit cu ti svasta u glavu
F#5
Ja mogu da te zabavim
ja mogu da te sludim
E5
ja mogu da te uspavam
ja mogu da te budim
118
RIFF2: x1 (H7: x212xx)
CHORUS: (RIFF1)
Da li verujes meni
da li verujes meni
ili mislis svojom glavom
ili mislis svojom glavom
INSTRUMENTAL:(lead gitara)x4 + RIFF1
E|---------------------------------
B|-10b(12)-10b(12)-10b(12)---------
G|--9b(11)--9b(11)--9b(11)-9-7-9-7~
D|---------------------------------
A|---------------------------------
E|---------------------------------
Mi ne idemo nikud i ne radimo nista
mi smo jedna velika hipnotisana gomila
al' ja znam kljuc ja poznajem tu bravu
otkljucat' cu i stavit cu ti svasta u glavu
Ja mogu da te zabavim...
Da li verujes meni x2
ili mislis svojom glavom x6
KRAJ:(D5-B5)x4
PARTIBREJKERS :: %OĆU DA ZNAM
UVOD:
A5
E|-------------------17\--|-----------------------------|
B|------------------------|------------------13---15----|
G|--12h14~----------------|-----------12/14-------------|
D|------------------------|-----------------------------|
A|------------------------|-----------------------------|
E|------------------------|-----------------------------|
G5
---------------------------------|----------------17----|
---16--13-15~-------13-----------|----------------------|
-----------------------14-12-----|----------------------|
-----------------------------14--|--12~-----------------|
---------------------------------|----------------------|
---------------------------------|----------------------|
F5
--17\--------------------|-----------------------|
-------------------------|-----------------------|
-------------------------|--------------------x--|
----------10~------7p5---|--------------------x--|
-----------------------7-|--5\-----3~------------|
-------------------------|---------------5\------|
A5
--------------------------|--------------------------|
--------------------------|----------8--8/10~--------|
-------5--7--7br-5-7p5----|--5--7/9------------------|
----7~-----------------7--|--------------------------|
--------------------------|--------------------------|
--------------------------|--------------------------|
119
RIFF1:
E|------------------------|-------------------------|
B|------------------------|-------------------------|
G|--2---------------------|-------------------------|
D|--2---------------------|-------------------------|
A|--0----3--0--3----0--5b-|----5--3--0--3--3--0--5b-|
E|------------------------|-------------------------|

-------------------------|------------------------|
-------------------------|------------------------|
-------------------------|---------5--------------|
-------------------------|------5-----7~----------|
----5--3--0--3--3--0--3--|--5/7-------------------|
-------------------------|------------------------|
VERSE2:
-------------------------|-------------------------|
-------------------------|-------------------------|
-------------------------|-------------------------|
----2--4--2--2--2--2--2--|----2--2--2--2--2--2--2--|
----0--0--0--5--0--3--0--|----0--3--0--5--0--3--0--|
-------------------------|-------------------------|
PRELAZ:
-----------------------|---------------------|
--7b---7r-7---------7--|--7----7--5----------|
--7b---7r-7---------7--|--7----7--5----------|
-----------------------|---------------------|
-----------------------|---------------------|
-----------------------|---------------------|
UVOD:1X (A5 G5 F5 A5) + SOLO
RIFF1:2x
VERSE: (A5)
Hocu da znam kuda vodi ovaj put
u meni
i zivot moj + (RIFF1)
Ciji je pocetak ciji je kraj
koji to covek vecnu tajnu zna + (RIFF1)
VERSE2:
Tamo gde je srce,tamo sija sunce
tamo gde je strah,tamo zivi mrak
CHORUS:(A5 G5 F5 F5) x2
Biti isti,biti poseban
biti slobodan
biti samo svoj
Isti, poseban, slobodan
biti samo tvoj
CEO TEKST PONOVO ISPOCETKA
BRIDGE x2 (A5 G5 F5 F5):
Marijo majko bozija
da li vidis sta rade sa tvojom decom
Refren
120
#LAMINGOSI :: LJUBAV
Cm x2 B G# + solo x2
Solo
G-7~-5~-3~--8-8-7-5-7-5--8-8-7-5-7-5---7-7-5-3-5-3--¬5-5-5-3-5-3-
Cm D#
Svice dan zlatnim suncem obasjan
B
Beli leptir na moj dlan
G# Cm
Slece i nosi poljubac u rosi okupan
D#
Zlatnim prahom zacaran
B
Da udje tiho u tvoj san
G#
I nezno te budim kao kad te ljubim
Refren x2:
Cm D#
Vodi me gde padaju zvezde
B G#
Spavajmo gde oblaci jezde
Cm D#
Rucajmo na pucini mora
B G#
Mazi me dok ne svane zora
Uvod + solo
Ode noc jos uvek imam istu moc
Da do tebe mogu doc
Samo pruzim dlan
Od morske vode slan
Zlatnim prahom zacaran
Da udjem tiho u tvoj san
I nezno te budim kao
kad kad te ljubim
Vodi me gde padaju zvezde
Spavajmo gde oblaci jezde
Rucajmo na pucini mora
Mazi me dok ne svane zora
Refren x2
Cm G Am
Ti, tako cista i nevina
D Cm
Lezis na mojim grudima
G Am
Na celom si svetu najlepsa
C G#
O Boze koliko te volim ja
Refren x2
121
AZRA :: A ŠTA DA RADIM
intro : Hm Em Hm
Hm
A sta da radim
G A Hm
kad odu prijatelji moji
G F# E G F# Hm
kad ode djevojka na koju bacam oci
Em Hm
I tako redom dan za danom
Em Hm
na javnim mjestima s gitarom
Em Hm
naravno da uvijek netko dodje
F# Hm
da me cuje makar i kradom Prelaz:(H A G F#)
F# Hm
Nista mi vise nije vazno
A D
Nasao sam dobar bend uulalaaaa
Em Hm
Zelim samo da sviram
F# Hm
Da se otkacim i to je sve
A sta da radim
kad odu prijatelji moji
kad ode djevojka na koju bacam oci
Em Hm
Ljudi samo govore
Em Hm
zasto si nervozan
Em Hm
ljudi samo pricaju
Em Hm
ne budi tako grozan
Em Hm
ljudske usne sapuc'u
Em Hm
sunjaj se ti kradom
Em Hm
izbjegavaj nevolje
F# Hm
skinut c'e ti glavu
Prelaz:(H A G F#)
F# Hm
Nista mi vise nije vazno
A D
Nasao sam dobar bend uulalaaaa
Em Hm
Zelim samo da sviram
F# Hm
Da se otkacim i to je sve
122
Hm
A sta da radim
G A Hm
kad odu prijatelji moji
G F# E G F# Hm
kad ode djevojka na koju bacam oci
AZRA :: MARINA
Intro: D, E A F#m x3
D E A E

F#m D E
Na neku cudnu foru
Marina misli da zna
Sto sve treba da cini
U drustvu frajera

Suvise je obicna
I prazan joj je smjer
Al' nuzda me nagoni
E D
Da spavam sa njom

A E
Dovoljno je da me vidi
A E
Da mi kaze Miki kako si
F#m E
i vec se osjecam bolje
A E
i odmah je na cesti pozelim x2
drugi put:
F#m E
Oooo ojeee
Ja sam samo jedan
od mnogih koje zna
Sarmiram je u hodu
laskam iz daleka
Ona se na nista ne zali
Odmice me na sud
Ali nuzda me nagoni
Da spavam sa njom
refren
uvod
sinoc sam je iz stosa
zazelio na tren
da bude nesto vise
da mi postane frend
a Marina ko Marina
negirala me skroz
a meni se samo prohtjelo
da spavam sa njom
123
refren
uvod
RITAM NEREDA :: PUT BEZNAĐA
Intro:|F#5 |A5 |E5 |C#5 |
|F#5 |A5 |C#5 | | x2
E|----------------------------|--------------------|
B|----------------------------|--------------------|
G|----------------------------|--6--6--6--7----9---|
D|--------11--------11--------|--7--7--7--7----7---|
A|--9--9---9--9--9---9--9--9--|--------------------|
E|----------------------------|--------------------|
---------------------|-------------------------|---------------------------|
---------------------|-------------------------|---------------------------|
---------------------|-------------------------|------------------6--6--6--|
-6-6--6--7--6--6--6--|--6--7----6----------11--|--------11--------7--7--7--|
-7-7--7--7--7--4--4--|--4--4----4----9--9---9--|--9--9---9--9--9-----------|
---------------------|-------------------------|---------------------------|
------------------------|--------------------------|-----------|
------------------------|--------------------------|-----------|
--7----9----------------|--------------------------|-----------|
--7----7----------6-----|-----6-----------6--------|--7----6---|
------------4--4--4--4--|--4--4--4--4--4--4--4--4--|--4----4---|
------------------------|--------------------------|-----------|
Gotovo je, skupilo se,
Uzdrzavas se da ne puknes
I kazaces svima dosta je,
Da dosta je.
Dugo su te vodili slepci,
Dugo su lutali, pricali,
Zatvarali oci,prespavali noci,
Sad kasno je.
Refren x2:
I doci ce dan kada ces sam
Krenuti putem beznadja
Zeleci da kao nikad do sad
Pobedis sam.
Intro
Vezali te,koristili
Svasta su s tobom radili,
Izmenili dusu,prodali
I vredjali.
I ustajes sam kazes da znas
Ja vise necu sa vama,
Dosta je bilo laganja,
Ja idem sam.
Refren x2
solo
Refren x2
124
SOLO (2:26):
11\ znaci slide ka nizim pragovima, r-release
e--------------------------------------------------------------------
h-----14-12¬9-9h10p9-----9-9h10p9------------------------------12^^--
g-9b------------------11-----------11¬11\---------9-9-11-11\---------
d-------------------------------------------9\11---------------------
a--------------------------------------------------------------------
e--------------------------------------------------------------------
e--------------------------------------------------------------------
h------------------------------------------------12b--12r--12^^------
g-------9-9-------9-9-11-11h13p11-9-9h11p9----9----------------------
d--9/11------9/11--------------------------11------------------------
a--------------------------------------------------------------------
e--------------------------------------------------------------------
e--------------------------------------------------------------------
h-12\14-12¬9-10------------------------------------------------------
g---------------11~¬9\11-9----9--------------9-9¬11-11~--------------
d--------------------------11---11~----9-11--------------------------
a--------------------------------------------------------------------
e--------------------------------------------------------------------
e--------------------------------------------------------------------
h----9-9\10--10-12-12\14¬14--14^^-14-12¬14---------------------------
g-11-----------------------------------------------------------------
d--------------------------------------------------------------------
a--------------------------------------------------------------------
e--------------------------------------------------------------------
RITAM NEREDA :: %ILJADE
e------------------------------------------------------------------------
B------------------------------------------------------------------------
G------7-----7-----5-----5-----5-----8-----8-----8-----7-----7-----5---5-
D--5-5-5-5-5-5-5-5-5-5-5-5-5-5-5-5-5-5-5-5-5-5-5-5-5-5-5-5-5-5-5-5-5-5-5-
A------------------------------------------------------------------------
E------------------------------------------------------------------------
G B G B
Boli te ova beda znam
G B G B
prosecno sivilo i sram
G B G B
ljudi su rusevine prah
G B F - let ring
i svakog trena gube dah
G B C
Hiljade grla klicu svi
F
nece prestati
G B C
svi kao jedan bice znam
F G B
traze novi dan
C
hiljade grla klice
125
G B C
svi kao jedan bice
G B C
za neki novi dan
Osecas nesigurnost zlo
neslogu drustvo propalo
cudo je niko nije kriv
cudo je sto si rodjen ziv
refren
intro
Kazu da tako moramo
spustenih glava hodamo
cudo je niko nije kriv
cudo je sto si rodjen ziv
refren
RITAM NEREDA 0 ONKELZ
I kada pogledam u nebo, tada pruzim ruke dve.
Intro x4: F G#, F D#
F
Kada stvarno padnem dole
kada svi me izgaze
veruj bicu onaj
Cis C F
koji brise granice.
F
zato nikad nece moci
da me shvate,pobede
nikad nece moci
Cis C F
da mi stave okove.
Refren:
G# C F F G# C Bb
tada padam dole, tada nestajem

F C#
I kada pogledam u nebo,tada pruzim ruke dve
Bb C
osecam da gorim,osecam da gubim sve.
samo daj mi malo nade,samo daj da istrajem
necu da se predam, necu da odustanem.
Intro x4: F G#, F D#
Zato zavode me stalno
Na te mracne puteve
Samo hoce moju
Slabost da iskoriste
126
Refren
RITAM NEREDA :: ,' GODINA
Napomena: sesta zica je prestimovana
Tema:
E|----------------|----------------|
H|----------------|----------------|
G|----7-----------|5---------------|
D|----------7-----|------5-----5h7-|
A|----------------|----------------|
D|0-0---0-0---0-0-|--0-0---0-0-----|
Strofa:
E|----------------|----------------|----------------|----------------|
H|----------------|----------------|----------------|----------------|
G|----------------|----------------|----------------|----------------|
D|----7-----7---7-|----7-----7---7-|----7-----7---7-|----7-----7---7-|
A|----5-----5---5-|----5-----5---5-|----5-----5---5-|----5-----5---5-|
D|0-0---0-0---0---|0-0---0-0---0---|0-0---0-0---0---|0-0---0-0---0---|
E|----------------|----------------|----------------|----------------|
H|----------------|----------------|----------------|----------------|
G|----------------|----------------|----------------|----------------|
D|----7-----7---7-|----7-----7---7-|----7-----7---7-|----7-----------|
A|----5-----5---5-|----5-----5---5-|----5-----5---5-|----5-----------|
D|0-0---0-0---0---|0-0---0-0---0---|0-0---0-0---0---|0-0---0-3b4r3b4-|
D5
Deset godina slusam a nista ne cujem
O cemu pricas trazis razloge
Cekam previse dugo da ti pokazem
Kako mislim sve da pokrenem
Refren:
D5
Ne nije me strah,
B5
Nije me strah,
C5 (A5) D5
Suvise znam, nije me strah
B5 C5 (A5) D5
Da glasno kazem ono sto osecam
B5 C5 (A5)D5
I kada me boli, boli ostajem
B5 F5
Duboko u meni, duboko u tebi
D5
10 godina
Intro
Deset godina gledam a nista ne vidim
Gde si i ko je kriv
Cekam previse dugo da ti pokazem
Kako mislim sve da pokrenem
Refren
127
RITAM NEREDA :: /AJDE
Uvod,strofa i refren
p.m......
E|----------------------------------|
B|----------------------------------|
G|----------------------------------|
D|---2-2-2-2-2-2-2---4-4-4--5-5-5---|
A|---2-2-2-2-2-2-2---2-2-2--3-3-3---|
E|---0-0-0-0-0-0-0------------------|
I sad ko pre ja trazim te
Kada cu stati to ne zavisi od mene
Treba da znas gde pripadas
Uvek si zeleo da budem pored tebe
Ajde jer cujem glas
I noc i dan ja nemam san
Ti podji samnom i ne pomisljaj na vreme
Ja i ti smo prodani
Zar stvarno ne vidis da treba da se krene
Ajde ajde ajde jer cujem glas
Ne pomisljaj na vreme
Jer treba da se krene
RITAM NEREDA :: BES
E5G5A5G5A5D5E5D5E5
E5
Oni nista ne znaju,
A5
Stoje i gledaju,
E5 H5
Jer dok ti zivot propada,
G5 A5
Ti skidas grc sa usana, osecas
E5G5A5G5A5D5E5D5E5
Bes!
E5 H5
Jer dok ti zivot propada,
G5 A5
Ti skidas grc sa usana, osecas
E5G5A5G5A5D5E5D5E5
Bes!
Nude i placaju,
Sebe prodaju,
Ne, ja nisam sa vama,
Dosta je vasih prevara, osecam
Bes!
RITAM NEREDA :: BETRAYED
Uvod:
128
|--------------------------|-----------------------------|
|--------------------------|-----------------------------|
|--------------------------|-----------------------------|
|--9----7--9----7--9--7----|--12----9--12----9--12--9----|
|--7----5--7----5--7--5----|--10----7--10----7--10--7----|
|--------------------------|-----------------------------|
Strofa: Palm mute(E5 G5)
|--------------------------|
|--------------------------|
|--------------------------|
|--------------------------|
|---2----5--2----5--2--5---|
|---0----3--0----3--0--3---|
Betrayed!

You make me real
You realy make me sensitive
I feel my brain
I feel what you say, my friend
You hide something form me
my friend, my friend, be trayed
You made my fear
You always ruin everything
My hope my will
You make me, you make me real, my friend
You hide something from me
my friend, my friend, be trayed
RITAM NEREDA :: CRNO JE SVE
Uvod: (D5 B5 A5)x4
Strofa 1:
D5 B5 A5
Koliko puta si gledao
D5 B5 A5
Svoje ruke kako bole
Koliko puta si slusao
Price drugih kako vole
Strofa 2:
D5 B5 A5 C5
U tebi opet sad crno je sve
U tebi opet sad crno je sve
D5 B5 A5 C5 D5
U tebi opet sad crno, crno je sve
Kraj strofe 2: B5 C5 B5 A5
Refren:
D5 B5 F5 A5
Zato sam nesrecan i umoran, propadam
D5 B5 F5 A5
Trazim izlaz, a znam da put je dug, beskrajan
129
Kraj refrena: F5 F5 F5 G5
Koliko puta si mislio
Ne treba da postojis
Koliko puta si ostao
Iza svih da se boris
RITAM NEREDA :: DA IDEMO
INTRO:
d--4-4--|--4-4--|--4-4-4--------------|--4-4-4------------|
a--4-4--|--4-4--|--4-4---0h4-2h0-2-4--|--4-4---0h4-2h0-2--|
e--2-2--|--2-2--|--2-2----------------|--2-2--------------|
d--4-4-4-------------------------------|
a--4-4---0h4-2h0-2-4--2-0-2-4-2-0------|
e--2-2----------------------------2-0--|
d-4-4-4-------------|-4-4-4-----------|-4-4-4--------------4-5-6-7-8-9-10-|
a-4-4---0h4-2h0-2-4-|-4-4---0h4-2h0-2-|-4-4---0h4-2h0-2-4--2-3-4-5-6-7-8--|
e-2-2---------------|-2-2-------------|-2-2-------------------------------|
F#5
zasto sam rodjen opet?
F#5
zasto sam rodjen opet?
F#5
zasto sam rodjen opet
H5
pod ovom senkom zla,
A5 H5
tu sam mladost docekao
F#5
sasvim umoran
zicom stezu oko tebe
zadnji deo sna,
zelim da ti kazem
da odlazim i ja
A5 H5
hajde daj, pokusaj,
F#5
da idemo
A5 H5
ma hajde daj, pokusaj,
F#5
da idemo
d--4-4-4--------------|--2--4--|
a--4-4---0h4-2h0-2-4--|--0--2--|
e--2-2----------------|--------|
svakog dana truju mozak
mrznjom, ludilom,
guraju nas napred
da prvi ginemo
stalno paze sta ces reci,
sta ces viknuti
130
zica steze, zica veze,
pobegni i ti
refren
|F#5 |H5 |A5 |H5 |F#5 | x2
refren
RITAM NEREDA :: DEVOJKA U CRNOM
uvod i strofa:
A5 D5A5 C5A5 D5 G5 A5 x3
Ti setas sama u mrkloj noci,
I pitas se da li ce doci,
I da l' ce doneti ono sto trazis,
Da li za njega jos uvek vazis.
PALM MUTE:
A5 D5 A5 C5
A5 D5 G5 A5
A5 D5 A5 C5
Otis'o, je otis'o njega vise nema,
A5 D5 G5 A5
Uzo ti je mladost dok si bila slepa,
Sada placi, sada tuguj, moraces da trpis,
Ponos ti je sada slomljen, moraces da cutis.
O, njega nema, vec pola sata,
Ljudi prolaze pored tebe,
Ti stojis sama k'o avet na uglu,
Shvatis i odlazis, devojko u crnom.
Shvatila si shvatila, uz'o ti je mladost,
Shvatila si shvatila, uz'o ti je sve,
Otisla si bespovratno, otisla si zauvek,
Ovaj grad i ovaj covek videti te vise nece.
Sada drugacije mislis i gledas na svet,
I nikom ne das da te dira k'o pre,
Ti nisi kurva za ulicne pse,
Ti nisi ono sto si bila pre.
Devojka u crnom bila si i ostaces,
Devojka u crnom sada mrzis sve,
Devojka u crnom okreces se i odlazis,
Devojka u crnom zauvek za sve.
RITAM NEREDA :: GRADSKA DECA
Intro:
E--------------------------------|--------------
H--------------------------------|--------------
G-10-9-8--7~----7-----------7~---|-7------(opet)
D----------------------10--------|-------------- x3
A-----------------10-10--10------|---10---------
E--------------------------------|--------------
131
(poslednji put)
E----------------------------------
H----------------------------------
G-10-9-8--7~----7------7----10/12~~
D--------------------10------------
A-----------------10----10---------
E----------------------------------
Verse:
D Dsus4 D Dsus4 D C G
E-2----3--3--2---3--3--2---------------------
H-3----3--3--3---3--3--3-------------------0-
G-2----2--2--2---2--2--2-------------0-----0-
D-0----0--0--0---0--0--0-----------2---------
A--------------------------------3-------2---
E--------------------------------------3-----
Slusaj buku, oseti moc,
Gradska deca idu u noc,
Zeljna su svega, zeljna su slave,
U tamnoj noci, ovaj grad pale.
A5 C5 D5
I samo ponekad kada se sete,
Proslosti teske, onda oni prete.
Dosta je bilo laganja i reci,
Vise niko nece da ih spreci.
Sad, pogledaj, ulice zovu,
Ulice prete svima,
Sad, gradska deca,
Marsiraju ponosno njima.
I samo ponekad kada se sete,
Proslosti teske, onda oni prete.
Dosta je bilo laganja i reci,
Vise niko nece da ih spreci.
RITAM NEREDA :: %EROJ
Intro:
PM... PM... PM... PM... PM......
E----------------------------------------------
H----------------------------------------------
G-------14-------15-------12-------14---------- X3
D-12-12-12-12-12-12-12-12-12-12-12-12-12-12-12-
A----------------------------------------------
E----------------------------------------------
D
U svom kvartu ti si heroj
A#
I tvoja ulica tvoj je dom
G
I niko nepozvan ne sme da udje
G C Am C
E--------|----------------------
H--------|----------------------
132
G--------|----5~~----2----------
D--------|-5--5~~-2--2----------
A-5--5\--|-3--3~~-0--0---3~~~~--
E--------|----------------------
U tvoje misli, u tvoj san, al'

D5
Jedna misao kruzi ti stalno
A#5
Kako da osvojis ceo grad
G5
Kako da pobedis najjaceg
C5 A5 C5
Kako da budes zakon ulice
REFREN
D5
Jer ti, jer ti si taj
A#5
Kog se plasi ceo kvart
G5 C5
Kog se plasi ceo grad, da, da,
A5 C5
Ti si taj, jer
D5
Ti, jer ti si taj
A#5
Kog se plasi ceo kvart
G5 C5
Kog se plasi ceo grad, da, da,
A5 C5
Ti si taj, jer ti si heroj!
PM.....................
E-----------------------------------------------
E-----------------------------------------------
E----2--5\-----2--5\--------------------------7-
E-2--2--5\--2--2--5\--------------------------7-
E-0--0--3\--0--0--3\--0-0-0-0-0-0-0-0-0-0-0-0-5-
E-----------------------------------------------
Ti si taj Jer ti si HEROJ!
< intro >
Pre si bio niko i nista
I smej'o ti se ko je hteo
Sada beze sa tvog puta
To je mnogo bolje nego da se smeju :)
Al' tvoja volja, tvoja slava
Proci nikad ne sme
Tvoja dusa ne trazi spasenje,
Tvoja dusa ne trazi mir
Jer ti, jer ti si taj
Kog se plasi ceo kvart
Kog se plasi ceo grad, da, da,
Ti si taj, jer
Ti, jer ti si taj
Kog se plasi ceo kvart
Kog se plasi ceo grad, da, da,
133
Ti si taaaj

< solo >
Jer ti, jer ti si taj
Kog se plasi ceo kvart
Kog se plasi ceo grad, da, da,
Ti si taj, jer
Ti, jer ti si taj
Kog se plasi ceo kvart
Kog se plasi ceo grad, da, da,
RITAM NEREDA :: %EY1
Intro:
H D C
|-------------------------------3------
|----------------------------3---------
|-----9---------7---------5-------5----
|---9---9-----7---7-----5-----------5-- 2x
|-7---------5---------3----------------
|--------------------------------------
(jos dvaputa razlaganje al preko ide H5)
*strofa: H5 D5 E5 G5 -> p.m.
Hey! (Hey!)
Da li mi cujes glas
Hey! (Hey!)
Potrazi za nas spas
Dosta je bilo lazi te
Dodji ovamo, promijeni se
Gdje je! (Gdje je!)
Da li mi cujes glas
Kad god! (Kad god! Kad god!)
*prelaz: H5 D5 E5
Hey! (Hey!)
Pucaju okovi lanci
Svuda su
Nasmejani stranci
Ne dozvoli da nas svi pokradu
Daj nam nadu daj nam nasu snagu
Gdje je! (Gdje je!)
Svuda su ovi stranci
Kad god! (Kad god! Kad god!)
*prelaz: H5 D5 E5
*solo:
134
Kad god! (Kad god! Kad god!)
*solo saksofon:
Hey! (Hey!)
Da li mi cujes glas
Hey! (Hey!)
Potrazi za nas spas
Daj nam malo te slobode prave
Daj nam zemlju, daj nam zemlju slave
Gdje je! (Gdje je!)
Daj nam zemlju slave
Kad god! (Kad god! Kad god!)
*solo saksofon:
RITAM NEREDA :: NEBO
Po jedno okidanje akorda ili riffova:
a
nemo stojim,
F
gledam nebo,
d
prokleto nebo, postaje crno,
a
zasto se krije?
|F5 |D5 |
a
gledam u njega,
F
prepoznajem sebe,
d
ukus krvi i zla
A5
kako ide pored mene
|A5 |F5 |D5 |
A5 F5
osecam da postaje hladno,
D5 A5
kao bol u glavi koji traje
F5 D5
zasto me boli?
A5 F5
u samoci svog ogledala stojim,
D5
bled obris svoga tela,
A5
gledam kako gori
F5 D5 F5 D5
135
ja gledam kako gori
ref:
A5 F5 D5
to je nebo za kojim tragam,
D5
opet tu je,
A5 F5 D5
moje nebo iznad vas
A5 F5 D5
to je nebo za kojim tragam,
D5
opet tu je,
A5 F5 D5
moje nebo iznad vas
E5
i ceka taj cas
|C5 |D5 |E5 |
|E5 |
A5 F5
dok cekam kisu, misli me lome,
D5
stvarnost stalno ceka,
A5
preti da zaboli
|F5 |D5 |
A5
pruzam ruke, ocekujem
F5
nemir, kisu, vatru,
D5 A5
sa neba znak, da jos zivim da se borim
|F5 |D5 |
F5 D5
da jos zivim
ref:
RITAM NEREDA :: NESTAJE
Uvod: E5 G#5 G5
E5
I dalje cekam onaj dan,
Jos uvek sanjam isti san,
I dalje verujem u sve,bas sve
C5 H5
Zbog vas, ja gubim secanje
E5 C5 H5 A5
Zbog vas mi sve, nestaje i prestaje,
E5 C5 H5
136
Sve nestace zauvek
E5 C5 H5 A5
Sve mi nestaje i prestaje
E5 C5 H E5 C5A5
Sve nestace, u prah, ja gubim dah, ja gubim dah
G5 H5 E5 G#5G5
Zbog vas mi prestaje sve
Nikada nisam prestao,
Mene je moj put vodio,
I ziveo za novi dan,
Zbog vas, nas san je nestvaran.
RITAM NEREDA :: NE
Intro:|F#5 |A5 |E5 |D5 E5| x2 + uvodni solo
Sa ovim ljudima ti nemas nista,
Jer odavno su te prodali,
Svi oni rastu jako brzo
I onda smesan si im ti.
Ceo svet se pokrece brzo,
A ti stojis snazno k'o pre,
Oni nece shvatiti nikad
Zasto ces uvek reci ne!
Refren x2:
Ne, ja necu postati novi
Ja cu uvek biti k'o pre
Ja svoj ponos prodati necu
Ja cu uvek reci ne!
Uvod
Sa tim ljudima ti nemas nista
Jer prodali su svoje sne,
Svi su on prerasli tebe,
A ti si ostao isti k'o pre.
I dok sedis sa vlasom u ruci,
Lome ti se misli sve,
Ipak shvatas da oni ne zele
Da budu isti kao pre.
Refren x2
Uvod + glavni solo
F#5 A5
Ne, ja necu postati novi
E5
Ne, ja necu postati novi
D5 E5*F#5
Ne!Ne!Ne!
RITAM NEREDA :: NIKAD VIŠE
137
RIFF:
H5 D5 E5 H5 F#5
E-----------------------------------------------------------------
H-----------------------------------------------------------------
G-4-44444--4-2-4-6-7-777777--7-6-7-8-9-9999999-7-9-7-4-444--------
D-4-44444--4-2-4-6-7-777777--7-6-7-8-9-9999999-7-9-7-4-444-4-444--
A-2-22222--2-0-2-4-5-555555--5-4-5-6-7-7777777-5-7-5-2-222-4-444--
E----------------------------------------------------------2-222--
H5 D5
Sad, pljuni, izgazi,
E5 H5 F#5
Nikad neces moci mirno spavati
Sad, vikni sada ti,
Mene necete lancem vezati
REFREN:
D5 E5 H5 F#5
I nemoj da mi pretis ti nikad vise
D5 E5 H5 F#5
I vidis oko tebe sve moje je
D5 E5 H5 F#5
Kazi svima sad na glas, nikad vise
D5 E5 F#5
Jer vas rob nisam ja
Dosta, vikni sada ti
Necu da me drze,
Teski okovi
Udri, skini glave sve,
Neka pate, neka boli,
Neka plase se
Refren
RITAM NEREDA :: NIJE KRAJ
Uvod:E5A5G5E5G5A5
E5 A5 E5 G5A5
I kada pomislis da si sam na svetu
E5 A5 E5 G5A5
Pogledaj sad i videces da zelis
E5 G5 A5 E5
I ovaj grad i ova noc dace tebi moc
E5 G5 A5 H5
Ne predaj se, pokazi strah - pobedicemo ga
A5 E5 A5E5G5A5
Pogledaj sad i videces da nije kraj
Iz ovog mraka ti ne vidis svetlo
Izlazi da zivis drugi svet
Srusi zid i jos si ziv za tebe nema vremena
Odluci se i kreni sad
Iz ovog mraka ti ne vidis dan
Pogledaj sada i videces da nije kraj
138
I ovaj grad i ova noc dace tebi moc
Ne predaj se, pokazi strah - pobedicemo ga
Pogledaj sad i videces da nije kraj
RITAM NEREDA :: NOĆ
H5 E5
Pada noc, ja nikog nemam.
H5 E5
Gde li su pobegli svi,
H5 E5
Zasto su se zakljucali,
F#5 G#5 F#5
od koga su se sklonili.
Jer noc je tamna, noc je vrela
za nju mi zivimo svi
hajde podji i ti s nama
zajedno smo najjaci
E5 H5
Jer noc je mlada
E5 H5
jer noc je lepa
E5 H5
noc, noc, noc je divna
E5 C#5F#5
hajde da razbijemo noc,noc
Ovu noc prozivi s nama
ove noci kazi sve
pozeli nesto i uzvikni
da se sada menja sve
jer noc je tamna, noc je vrela
za nju mi zivimo svi
hajde podji i ti s nama
zajedno smo najjaci
Jer noc je mlada
jer noc je lepa
noc, noc, noc je divna
hajde da razbijemo noc
RITAM NEREDA :: ODLAZE
E5 G5
Sada odlazis zauvek,
A5 E5
Ides negde daleko,
E5 G5
Neces vise to da trpis,
A5 E5
Sve je tako sumorno.
E5
A samo jedan je dan,
G5
Kada postajes taj,
C5 H5
139
Sto trebas sve da das.
E5
Stiskas pesnice dve,
G5
U tom pokretu je,
C5 H5
Izlazak sa dna.
E5 D5
Ne,Ne, isamo odlaze,
C5 H5E5
Necujno, nekud prolaze,
Ne, i nevracaju se,
Nikada, ne nesecaju se.
Usne tvoje neme mole,
Da se nekad vratis ti,
Uvek mislis na sve tvoje,
Pamtis ko si bio ti.
RITAM NEREDA :: PROTIV SVI%
Uvod:E5G5A5
E5
Isto je sve,
G5 A5 E5
Ja znam da ukrali ste sne,
G5 A5
I gazite bez trunke ponosa,
E5G5A5
Vi gazite.
I lazete,
Zidate kule, zidove,
I drzite u svojim odajama
Pse.
D5 E5
Da li ces slusati, govore te
D5
Hoces li pustiti da otmu ti
E5
Sve.
H5
Ti, ti trebas mi da sad Viknem
D5 F5 E5 D5 H5D5E5
Na glas, zauvek sloboda!
G5 A5 E5A5 G5
Protiv svih, udaram.
I klicu svi,
Svome vladaru najjaci.
I placu, mole, puze,
Pokorni su svi.
D5 E5
Da li ces slusati, govore te
D5
Hoces li pustiti da otmu ti
E5
140
Sve.
H5
Ti, ti trebas mi da sad Viknem
D5 F5 E5 D5 H5D5E5
Na glas, zauvek sloboda!
G5 A5 E5A5 G5 F#5C5H5 3X F#5A5
Protiv svih, udaram.
H5
Znaj,
D5
Jer mnogo nas je sto
A5
Cekamo kraj,
H5
I kule vam rusimo mi.
D5
Ti, ti trebad mi da sad
A5
Viknem
F5E5 D5 H5D5E5
Na glas, zauvek sloboda!
RITAM NEREDA :: RASKRŠĆE
Intro:A5 C5 D5 A5C5 x2
A5 C5
Ti, kreces u zivot za to jako zagrejan
D5 A5 C5 A5
Nedaj da upravlja tobom onaj koji nije siguran...
A5 C5 D5
Ti na raskrscu stojis...
A5 C5 A5
Tako cec resiti sve...
RITAM NEREDA :: SA DRUGE STRANE ZAKONA
Em
Dal' se secas onih paklenih noci
G
Crnog neba, jutra sto ce doci
Am
Da li pamtis trenutke teske
C H
Uvek si ponavljao greske
Em
Samo nocu si ziveo dobro
G Am
Samo tada si imao sve u samoci
Razbijao noci
C H
Mislio si: nikad nece proci
Ali ne!
Ti stojis s druge strane zakona
141
Ispred tebe nema zaklona
Povukli se, pobegli su svi
Na kraju sam ostao si ti
Ti gledas svoje lice - bojis se
Oni dolaze uzimaju sve
Jer stojis s druge strane zakona
Sa druge strane zakona
Nemirne noci, zatvaras oci
Gubis se u svojoj samoci
Oni su tu i jure te
Jer znaju da je tebi propalo sve
U svojoj celiji ti mrzis sebe
Niko nikad nije pitao za tebe
Niko te ne zna i niko te nece
Za tebe su palili svece
Ali ne!
Ti stojis s druge strane zakona
Ispred tebe nema zaklona
Povukli se, pobegli su svi
Na kraju sam ostao si ti
Ti gledas svoje lice - bojis se
Oni dolaze uzimaju sve
Jer stojis s druge strane zakona
Sa druge strane zakona
RITAM NEREDA :: SAMA
uvod:
e|------------------------------ |
H|------------------------------ |
G|------------------------------*|
D|----------------3-3---5---3---*|
A|--3/5--5-3--5---3-3---5---3--- |
E|--3/5--5-3--5-------5---5---5- |
uvodni solo:
e|---------|---------------------------------------17~
H|--------15/17------------15~--------15/17-----------
G|14~--------------19--17--------14~---------19--17---
D|----------------------------------------------------
A|----------------------------------------------------
E|----------------------------------------------------
Strofa 1:
A5 C5 D5
U svom svetu najbolja si ti
D5
za sebe san si najveci
A5 C5 D5
misli malo i na drugu stranu
D5
svakom drugom ti otvoris ranu.
Strofa 2
Misli malo, pogled se bolje
Da li vredis, nekom nesto znacis
142
Da l' si vredna sama svega toga
Da l' si vredna, da li tebe vole.
A5 C5 D5 G5
Sama ostaces jednom,
sama, sama ostaces jednom.
Uvodni solo!
Za tebe ne postoji niko
Niko na put ne sme da ti stane
Zoves kada trazis, zoves kada moras
Treba ti neko samo kada patis.
Svakog dana sve te manje vole,
jer puno trazis,a ne dajes nista
Dokle ces tako, pitaju se mnogi
Dokle tako ...
A5 C5 D5 G5
Sama ostaces jednom,
sama, sama ostaces jednom.
Uvodni solo!

RITAM NEREDA :: SAMO SVOJ
Uvod:A5C5E5D5,A5C5E5
A5 C5 E5 D5
Jos samo nocas ja bicu pored tebe,
A5 C5 E5 D5
Jos samo nocas bicu samo tvoj,
A5 C5 E5 D5
Kazi gde hoces i kazi kada zelis,
A5 C5 E5 D5 A5C5E5D5,A5C5E5
Jos ovaj put ja bicu samo tvoj.
Odlazim nekud, ja odlazim zauvek,
Idem daleko da ne bih bio tvoj,
I nikad vise ti ne misli na mene,
I nikad vise ja necu biti tvoj.
A5 E5
Hej vidi, ja sam sada covek,
G5 A5 E5G5
Zivim za sebe, ja sam sada svoj,
A5 E5
Hej vidi, ja odlazim odavde,
G5 A5 E5G5,A5C5E5D5,A5C5E5
Ispred mene stoji zivot moj.
Ne mogu vise da slusam sve te lazi,
Ne mogu vise da pomislim na to,
Odlazim sada i vise me ne trazi,
Jos ovu noc ja bicu samo tvoj.
RITAM NEREDA :: SAN
143
a C
Hej,momce,ti u blatu,
G a
Sto dugo stojis sam,
a C G
Ne dozvoli da ti otmu san.
a C
Jer,ti samo od snova zivis,
G a
Oni su tvoje potrebe,
a C G5
Ne dozvoli da te uniste.
A5,C5,G5,A5 \
A5,C5,G5 \ x3
A5 C5
Hej,momce,ti u blatu,
G5 A5
Sto dugo stojis sam,
A5 C5 G5
Ne dozvoli da ti otmu san.
A5 C5
Jer,ti samo od snova zivis,
G5 A5
Oni su tvoje potrebe,
A5 C5 G5
Ne dozvoli da te uniste.
A5
Sam kreni hrabro,
C5
Zaboravi na ljude sve,
G5 A5 G5,A5
Oni zele da te povrede.
A5
Sam kreni hrabro,
C5
Oni krecu na tebe,
G5 A5 G5,A5
Nikada ne predaj se.
A5,C5,G5,A5 \
A5,C5,G5 \ x2
A5 C5
Pozuri snevaj malo brze
G5 A5
San je tebi potreban,
A5 C5 G5
Jer se sutra radja novi dan.
A5 C5
Moras biti mnogo jaci,
G5 A5
Celu noc biti sam,
A5 C5 G5
144
Moras sutra prezivjeti dan.
A5
Sam kreni hrabro,
C5
Zaboravi na ljude sve,
G5 A5 G5,A5
Oni zele da te povrede.
A5
Sam kreni hrabro,
C5
Jer oni krecu na tebe,
G5 A5
Nikada ne predaj se.
G5 A5
Ne predaj se.
A5,C5,G5,A5 \
A5,C5,G5 \ x3
A5
Sam kreni hrabro,
C5
Zaboravi na ljude sve,
G5 A5 G5,A5
Oni zele da te povrede.
A5
Sam kreni hrabro,
C5
Jer oni krecu na tebe,
G5 A5 G5,A5
Nikada ne predaj se.

RITAM NEREDA :: SEĆANJA
F#5
kome da verujem,
A5
ova vremena su zla
H5
ne izlazim nikud,
D5 F#5
samoca me ubija
a kome da kazem
da ne mogu vise ni dan
lome me, gaze me,
ja to osecam
F#5 D5
pun secanja, krecem sa dna
E5 C#5
gde je sve pocelo, moram da znam
F#5 D5
pun nemoci i prezira,
H5 C#5
tragam za istinom, pokusavam
F#5
145
pokusavam
iz pepela opet ja
ustajem jaci nego pre
uspeli nisu da izbrisu
secanje
okruzen ludilom,
cekam da nestane sve
secam se proslosti,
secam se istine
pun secanja, krecem sa dna
gde je sve pocelo, moram da znam
pun nemoci i prezira,
tragam za istinom, pokusavam
pokusavam
pun secanja, krecem sa dna
gde je sve pocelo, moram da znam
pun nemoci i prezira,
tragam za istinom, pokusavam
pokusavam
RITAM NEREDA :: ZNAK
Intro: D5 A#5 A5 F5 G5
F
Sanjam sivi grad,
G
Kako tone u suton,
D
Oko nas.
F
Gledam poznate ljude i
G
Slusam njihove price,
Jutro!?
E5
A ko su ova lica sad,
Odakle izlaze,
Da li osecas taj smrad,
DFG
Pune ulice.
Sanjam drugove, bracu,
Gledam vesela lica,
Oko nas.
Dan, opet izlaze,
Blato preko svega.
Ja placem, vicem.
Da li cujes, da li vidis.
D5 A#5 A5
Da li vidis znak,
F5 G5
Stojimo sa druge strane,
D5 A#5A5
Nikad medju vas,
146
F5 G5 F5G5,EmGAmGEm
Krvlju reci zapisane,
E5
Vrati mi san,
G5
Vrati mi san,
A5
Jer necu u dan,
G5
Nikako sam,
E5 DFG
Nikako sam.
Zauvek veciti stranac
U ovoj zemlji ces biti.
Stranac
RITAM NEREDA :: )AB
A5 D5
Dan kao svaki dan samo je tuzan i bezvredan
G5 D5 A5
Mnogi su slepi ne vide da treba da se probude
A5 D5
Mnogi cute i trpe sve al' ja sam protiv sudbine
G5 D5 A5 A5 D5 G5 D5 A5
Pokusavam ali ne ide jer mnogi cute i trpe sve
A5 D5
Ma hajde malo pogledaj svet, pogledaj oko sebe sad
G5 D5 A5
Videces mnogo pakosnih ljudi, osetices njihov smrad
N
PLEJBOJ :: ZNAJ
Cm
Ides oko mene, ides oko mene
F G# Cm
I gledas me dugo
Cm
Ja sam divlje dete, ja sam divlje dete
F G# Cm (C5-C#5-D5)
I volim nekog drugog
REFREN:
D# Cm D# Cm
Znaj, znaj, znaj, znaj
G# F Cm
Gadan bicu ja
D# Cm D# Cm
Znaj, znaj, znaj, znaj
Gadan bicu ja
Cm
Ja sam tvoja senka, ja sam tvoja senka
F G#
I pratim te vesto
Ja sam divlje dete, ja sam divlje dete
147
I igram se vecno
D# Cm D# Cm
Znaj, znaj, znaj, znaj
G# F Cm
Gadan bicu ja
Znaj, znaj, znaj, znaj
Gadan bicu ja
Znaj, znaj
Gadan bicu ja
Znaj, znaj
Gadan bicu ja
Znaj, znaj
Gadan bicu ja
Znaj, znaj
Gadan bicu ja
KERBER :: BOLJE DA SAM DRUGE LJUBIO
razlaganje:
Dm
U tvojoj kosi sam sakrio zvezde
C B
Mesec u kuci od dlanova
Dm
Ispod kaputa dve ranjene ptice
C B
I dugu iz moga jastuka
D5 istrzavaj
B5 C5 A5 D5
Na tvome vratu mi ostale usne
U dzepu plava marama
Brodovi neki daleki u oku
Poslednja tramvajska stanica
Prelaz:
C Dm
Jeftina noc za sve
C Dm
Neverne drugove
C5 D5
I ceo svet nek sagori
B5 C5
Samo da tebe prebolim
Refren x4 (riffovi):
G B F C
Bolje da sam druge ljubio
G B D C
Radosti moja, moja nevero
G B F C
K'o besan pas lajem nocima
B
Na tvoje prozore
148
KERBER :: %TEO BI%
INTRO: Hm G A Hm + solo (svaki akord po 2 puta)
Hm G A /Hm A G-let ring/ /G A Hm-let ring/
Hm
Hteo bih da budem pesma
pesma na tvojim usnama
D A
vojnik u tvome ratu
E G Hm
covek od kamena
hteo bih da budem reka
izvor u tvojim ocima
cuvar zvezda u tvojim besanim nocima
refren x2:
Hm D
nek traje
Hm D
dok traje
A G
a posle nek zvona
A
zvone tuznima
intro
dok gore moje zelje
mesec u mladom zadnji put
i vrati brat bratu pepeo pepelu
kada noc sklopi krila
i magle padnu srebrne
naci ces put do druge obaleeee
refren - lagano
refren - brzo
KERBER :: ČOVEK OD MEDA
Tema:
D D
E|--------------------------------|----10------12--10h12p10--------|
H|10-12p10----10------12------13--|------------------------13------|
G|--------12----------------------|--------------------------------|
D|--------------------------------|--------------------------------|
A|--------------------------------|--------------------------------|
E|--------------------------------|--------------------------------|
D D
E|--------------------------------|----10------12--10h12p10h12p10--|
H|10-12p10----10------12------13--|--------------------------------|
G|--------12----------------------|--------------------------------|
D|--------------------------------|--------------------------------|
A|--------------------------------|--------------------------------|
E|--------------------------------|--------------------------------|
D D
E|--------------------------------|----10------12--10h12p10--------|
149
H|10-12p10----10------12------13--|------------------------13------|
G|--------12----------------------|--------------------------------|
D|--------------------------------|--------------------------------|
A|--------------------------------|--------------------------------|
E|--------------------------------|--------------------------------|
D D
E|--------------------------------|----10------12--14--------------|
H|10-12p10----10------12------13--|--------------------------------|
G|--------12----------------------|--------------------------------|
D|--------------------------------|--------------------------------|
A|--------------------------------|--------------------------------|
E|--------------------------------|--------------------------------|
Uvod:
G G
E|--------------------------------|--------------------------------|\
H|12--13--15--12------------------|12--13--15--12------------------||
G|--------------------------------|--------------------------------||
D|--------------------------------|--------------------------------||
A|--------------------------------|--------------------------------||
E|--------------------------------|--------------------------------||
C C |2X
E|----------------------------12--|------------15------12----------||
H|13--12------13------12----------|--------13--------------15--13--||
G|--------12--------------12------|--------------------------------||
D|--------------------------------|--------------------------------||
A|--------------------------------|--------------------------------||
E|--------------------------------|--------------------------------|/
Strofa:
G C
Od zurbe tvojih zuba tragovi
G C
Ti ljubis uvek tako da boli
F G
Za tebe nikad nema granice
F C G
Ja nisam pastuv, crna zdrebice
Ti volis divlje guske
Ti volis divlje seve
Ja vodim mrtvu trku
Ulazim u tebe kao u crkvu
Refren:
F B
Ne, ne, ne, ja ne mogu vise
F B
Ne, ne, ne, lose mi se pise
Dis
Kazanova to tebi treba
C F
Ja sam samo covek od meda, hej
KERBER :: IZMEĐU JAVE I SNA
Bm C# G# D#
Kao mala gnezda na granama
Bm C# G#
Puna starih letova
150
Bm C# G# D#
Kao mrtvo srce od secanja
Bm C# G#
Kao prva radost decija.
Ti si moja prosla i buduca
Svedok koji ne laze
Ti si moja prva i poslednja
Cujem nocu tvoje korake.
F# G# C# F#
Vrata samo vetar otvara
G# Bm
Zebem kao zaseda
F# G# C# F#
Mo---ja pesma vise ne peva
F7
Crna joj je haljina.
refren:
Bm C# F# G#
Ja sam ulica za tvoj povratak
Bm C# G#
Izmedju jave i sna
Bm C# F# G#
Ja sam poslednje tvoje skoloniste
Bm F# G#
Nemas, nemas gde.
KERBER :: JOS SAMO OVU NOĆ MI DAJ
Uvod:
E---------1-|---------0-|--------3----------------|---1---|
H-------3---|-------1---|-------3-3---------------|---3---|
G-----2-----|-----0-----|-----0-----0-------0-----|---2---|
D---0-------|---2-------|---0---------0-----0-----|---0---|
A-----------|-----------|-----------------2--2323-|-------|
E-----------|-----------|-------------------------|-------|
Dm C
Odlazi noc, vozi tramvaji
G Dm
poslednju partiju
Nestajem nosi me vetar
k'o zgazenu hartiju
Odlazi noc, plasljive oci
sanjivo pitanje
Sacekaj da rasanim reci
sacekaj svitanje.
B Gm
Jednom kad noc probudi te
F A
kad ne bude vazno ko pre
B Gm
priseti se barem na tren
F A
jednom kad ne bude me
Dm B F
151
Hej, jos samo ovu noc mi daj
A
ne treba vise
Dm B F A
Hej, i bice dovoljno za kraj
Umire noc, poslednju zvezdu
skirvaju oblaci
Ne plasi se jednom kad snove
probude koraci
SOLO:
E||----------------------------|------------------------------------|
B||----------------------------|------------------------------------|
G||--9--10p9---------12b-------|--14--15p14-12--14p12----------12---|
D||----------12--10------------|----------------------12---/14------|
A||----------------------------|------------------------------------|
E||----------------------------|------------------------------------|
--------------------------------|----------------||
------------18------------------|----------------||
----14--15------15----14p12-14--|----14h15-14----||x2
--------------------------------|----------------||
--------------------------------|----------------||
--------------------------------|----------------||
KERBER :: LUKA
uvod: 4X
e---------------------------------------------------
H---------------------------------------------------
G--5-5-5----3----3-3----5----3-------3-3----3-3/5-5-
D--5-5-5----3----3-3----5----3-3-3---3-3----3-3/5-5-
A--3-3-3----1----1-1----3----1-3-3---1-1----1-1/3-3-
E------------------------------1-1------------------
D
Prvi je od nas is'o preko grane
G
Prvi je kosu pustio u kraju.
D
Neke daleke , sezdeset i neke
G
Prve Vespe i nesto sto se nesme
Prvi je od nas preplivao reku
Prvi je pevao ,,Love, love me do!"
Neke daleke sezdeset i neke
Zauvek ode, s nama jos je tu.
ref:
C F C G
My name is Luka , my name is Luka
Am F
Lovio je Svedjanke po moru,
G
Bio prvi galeb , za neku sitnu lovu
...
G7
152
bio galeb za neku sitnu lovu...
Kad su ga neki jebeni Germani
Ubili kvarno negde u Berlinu ,
Srce mu bilo puno bivse Juge.
A oci cudne, oci boje duge.
ref.
KERBER :: MAMA$ TATA
riff Y:
E|-------------------------||
H|-----3---3-3-------------||
G|---3-2---2-2-2p0-------0-||
D|---0---0---------3p0---0-||
A|---0-----------------3---||
E|-------------------------||
a onda ovo:
E|-------------------------||
H|---3---3-3---------------||
G|---2---2-2-2p0-----------||
D|-0---0---------3p0---0---||
A|-------------------3-0---||
E|-------------------------||
Y
Na vrh brda vrba mrda
riba ribi grize rep
vuci siti, ovce bleje
al' je ovaj zivot lep.
Volim pemsu bla, bla, bla, bla
Koja nikog ne dira
najlepse je kad smo sami
sve ti dam i sve mi das.
Al' kao kocka od secera
Slatka lutka jutros otisla. 2x Y
C G
I sve mi ovih dana kao bajka izgleda
B Dsus2
Ko voz bez voznog reda i bez putnika.
C G
Pomera se zemlja, gubim tlo pod nogama
B Y
Kupio sam jednu kartu do meseca.
Y
Preko reke pa u sumu,
a u sumi lezi zec
Ti si mala prepelica
eci peci peci pec.
Snezana je jedna bila,
a patuljaka je sest
svako svoju gumu zvace
bla bla bla bla u nesvest.
Al' kao kocka od secera
Slatka lutka jutros otisla. 2x Y
153
C G
I sve mi ovih dana kao bajka izgleda
B Dsus2
Ko voz bez voznog reda i bez putnika.
C G
Pomera se zemlja, gubim tlo pod nogama
B Y
Kupio sam jednu kartu do meseca.
Dechica pevaju:
D5 C5 G5
Mama, tata vraticu se ja...
Kad sve ovo prodje.
KERBER :: IGRAJ SAD
Uvod:
E|----------------|----------------|----------------|----------------|\
H|----------------|----------------|----------------|8---------------||
G|----------------|----------------|----------------|7-------7-------||
D|----------------|----7b--7b8r----|7-----5---------|7-------7-------||
A|2-----2-----2---|------------7-5-|7-----5-----7---|--------5-------||
E|0-----3-----0---|----------------|------------7---|----------------||
|x2
E|----------------|----------------|----------------|----------------||
H|----------------|----------------|----------------|----------------||
G|----------------|----------------|----------------|----------------||
D|----------------|----7b--7b8r----|7-----5---------|----------------||
A|2-----2-----2---|------------7-5-|7-----5-----7---|5h7p5h7p5h7p5h7-||
E|0-----3-----0---|----------------|------------7---|----------------|/
Tema:
Pratnja: Em, G, C, D
E|----------------|----------------|----------------|----------------|
H|8~~-------------|7---------------|8~~-------------|7---------------|
G|----------------|------7---------|----------------|------7---------|
D|----------------|------------9---|----------------|------------7---|
A|----------------|----------------|----------------|----------------|
E|----------------|----------------|----------------|----------------|
E|----------------|----------------|----------------|----------------|
H|----------------|----------------|----------------|----------------|
G|----------------|----------------|----------------|----------------|
D|7h9~~-----------|----------------|9(harm)---------|----------------|
A|----------------|----------------|----------------|----------------|
E|----------------|----------------|----------------|----------------|
E|----------------|----------------|----------------|----------------|
H|8~~-------------|7---------------|8~~-------------|7---------------|
G|----------------|------7---------|----------------|------7---------|
D|----------------|------------9---|----------------|------------9---|
A|----------------|----------------|----------------|----------------|
E|----------------|----------------|----------------|----------------|
E|----------------|----------------|----------------|----------------|
H|10b12------10-8-|10~~------------|15p12p10....----|----------------|
G|----------------|----------------|----------------|----------------|
D|----------------|----------------|----------------|----------------|
A|----------------|----------------|----------------|----------------|
154
E|----------------|----------------|----------------|----------------|
Strofa:
Em
Lutas sam po gradu
G
Ne znas na koju stranu, razmisli
C
Zvezde se nocas roje
Am D
Bilo bi bolje da je tu
Fill:
D
E|----------------|----------------|
H|10b12-----------|10-8------------|
G|----------------|----9-7---------|
D|----------------|--------9-8-7---|
A|----------------|--------------10|
E|----------------|----------------|
Napolju trube trube
U gradu zuje bube, razmisli
Stvarno bi steta bilo
Sto bi zato manje ljubio
Refren:
Em G D C
Igraj sad, bubanj ubija
D Em G D C
Samo on tugu razbija
D Em G D C
Igraj sad, jednom ti si mlad
D C D
I vise nikada, i vise nikad nikada
(ponovi temu)
Valjaju se dani
Teze je nego lani, razmisli
Zvezde se nocas roje
Bilo bi bolje da je tu
(ponovi refren)
KERBER :: NA RASKRŠĆU
Intro melodija + Pratnja akordi iz strofe
-13-12----10------------10-12-13--15^12----------------------
--------13------12--------------------------13-15------------
--------------------12---------------------------------------
-------------------------------------------------------------
-------------------------------------------------------------
-------------------------------------------------------------
-13-12----10-----------------------10-------------------------
--------13-----12--------10-12-13-----12----10----------------
-------------------12-------------------12--------------------
--------------------------------------------------------------
155
--------------------------------------------------------------
--------------------------------------------------------------
Razlaganje (odozgo samo):
Am F G Am
Tu smo, na raskrscu
F G Am
korak tezi od nebesa
Ko slijepi putnici
koje niko i ne ceka.
Dm C G
Sad se kaju bajevi
Dm C G
Snene zore i nemiri.
Am F G Am
Pitaju zasto smo
F G Am
ih i uopste budili.
Ref x2:
Dm C G
Ne mogu zaspati
Dm C G
u toj kuci od snjegova.
Dm C G
Ni vise ljubiti
F C Am
tvoje usne od pelina
Kad kisa prestane
Tudji san ces obaviti
Na mojim senama
Neka druga ce ostati
refren x2
KERBER :: RATNE IGRE
Uvod:
Dm G Dm C B D5-
istrzavaj
E|----------------|----------------|----------------|----------------|
H|----------------|----------------|----------------|----------------|
G|--------------55|5-777-----------|--------------55|5-444---4-------|
D|--777-555-777-33|3-555-----------|--777-555-777-33|3-222---2-555---|
A|--555-333-555---|----------------|--555-333-555---|----------333---|
E|----------------|----------------|----------------|----------------|
Strofa:
Dm Am
Kad srusimo mostove
C G
I kada spustimo maceve
B F
Pozelim da su nase igre
G A
Ratne igre bar malo neznije
Nije vazno ko pocinje
156
Uvek na kraju cutimo
Kad mnogo toga treba reci
A nema reci, reci za istinu
Refren:
Dm G
Nek' sada ratne igre prestanu
Dm C B
Jer vise niceg nema u tebi, u meni
U mome srcu kise padaju
U dusi veju crni snegovi
Ti uvek odvise ponosna
Ja tvrdoglav kao noc
I ko ce koga prvi zvati
Ko kome dati ruke za dodire
I opet lose se osecam
Kruzim kao zao duh
Jer mnogo toga treba reci
A nema reci reci za istinu
Prelaz:
E|----------------|----------------|----------------|----------------|\
H|----------------|----------------|----------------|----------------||
G|----------------|----------------|----------------|----------------|2X
D|7-5-7-----------|--------------5-|7-5-7-----------|3-----5---------||
A|5-3-5---------5-|7-5-7---------3-|5-3-5-----------|1-----3---------||
E|--------------3-|5-3-5-----------|----------------|----------------|/
E|----------------|----------------|----------------|----------------|
H|6-----5---------|3-----1---------|----------------|----------------|
G|7-----5---------|3-----2---------|3-----2---------|----------------|
D|----------------|----------------|5-----3---------|5-----3---------|
A|----------------|----------------|----------------|7-----5---------|
E|----------------|----------------|----------------|----------------|
E|----------------|----------------|
H|----------------|----------------|
G|----------------|----------------|
D|2---------------|(2)-------------|
A|0---------------|(2)-------------|
E|----------------|----------------|
Solo + pratnja riffovi: D, A, D, B C (svaki riff po 2 puta)
KERBER :: %AJDE DA SE VOLIMO
Uvod:
Am Am G Am G D
E|----------------|----------------|----------------|----------------|
H|----------------|----------------|----------------|----------------|
G|----------------|----------------|----------------|----------------|
D|----------------|----------------|7-------7-----79|10----10-9--7---|
A|0-0-0-0-0-0-0-0-|0-0-0-0-0-0-0-0-|----10----------|--10-7----------|
E|----------------|----------------|----------------|----------------|
G E Am G Am G D G E
E|----------------|----------------|----------------|----------------|
H|----------------|----------------|----------------|----------------|
G|----------------|----------------|----------------|----------------|
157
D|9-------7-6---6-|7-------7-----79|10----10-9--7---|9-------7-6---6-|
A|------------7---|----10----------|--10-7----------|------------7---|
E|----------------|----------------|----------------|----------------|
Am G Am G D G E Am G Am
E|----------------|----------------|----------------|----------------|
H|----------------|----------------|--------10-9--9-|10------10--1012|
G|----------------|------9--7--6---|7-----------9---|----12----------|
D|7-------7-----79|10--------------|----------------|----------------|
A|----10----------|--10-7----------|----------------|----------------|
E|----------------|----------------|----------------|----------------|
G D G E E E A
E|----------------|--------1716----|----------------|----------------|
H|13----13-12-10--|12----------17--|10-9------------|----------------|
G|--12-9----------|--------------16|----9-----------|----------------|
D|----------------|----------------|------9-7-6-----|--------2-------|
A|----------------|----------------|------------7---|--------0-------|
E|----------------|----------------|--------------7-|5-4-0-----------|
Prelaz 1:
E|----------------|----------------|
H|----------------|----------------|
G|--5--4--5-------|(5)-------------|
D|--5--5--7-------|(7)-------------|
A|----------------|----------------|
E|----------------|----------------|
Strofa:
Am C G
Moja curica izgubila san
F E Am
Ja ga nas'o pa ne dam
C G
Sanja ona cak o Holivudu
E
I sta se sad zbiva
Glavna zvezda je potpisuje se
Nekom tipu iz Rima
Luduju za njom u Podmoskovlju
I sta se sad zbiva
Prelaz 2:
Dm G
Oduvek htela je
C Am
Da svet se vrti oko nje
Dm G E
Nocas se probudi kraljice
Refren:
A G A C G D G E
E|----------------|----------------|----------------|
H|----------------|----------------|----------------|
G|----------------|----------------|----------------|
D|2-------2-------|----------------|----------------|
A|0---5---0-------|--------5---5---|5-------2-------|
E|----3-----------|--------3---2---|3-------0-------|
Pusti to hajde da se volimo preboleces
Svoje sne kad te ruke zagrle
Solo: C G C G C Am Dm G
158
ceo tekst ponovo
KERBER :: KAD LJUBAV IZDA
C#m A C#m
Kad ljubav izda sva vrata se zatvore
C#m A F#m
Prolece kasni a oci ne govore
F#m E C#m A
jednom se ljubi a ti razocaras se
F#m H C#m
prsten od zelja bacas u oblake
Necu te kleti vesela budi mi
nek ti od sunca budu svi putevi
neka ti ljubav moja na snovima bdi
nek ti od ptica budu prozori.
A E
Mirisu aprilske noci
H C#m
na tvoja nedra neverna
A E
ko li ih sada ljubi
H
ne bi mu zubi
H stop
ne bi mu zubi
C#m
Svetlana.
solo
Prva strofa ponovo
Refren x2
KERBER :: MEZIMAC
Tema:
A A
E|----|--------------------------------|--------------------------------|
H|----|5-------------------------------|5-------------------------------|
G|6h7-|----7p6-7---6p4-6-----------6h7-|----7p6-7---6p4-6---------------|
D|----|--------------------7-----------|--------------------7-----------|
A|----|--------------------------------|--------------------------------|
E|----|--------------------------------|--------------------------------|
Fism Fism
E|----|--------------------------------|--------------------------------|
H|----|5-------------------------------|5-------------------------------|
G|6h7-|6---7p6-7---6p4-6-----------6h7-|6---7p6-7---6p4-6---------------|
D|7h9-|----9p7-9---7p6-7---7-------7h9-|----9p7-9---7p6-7---7-----------|
A|----|--------------------9-----------|--------------------9-----------|
E|----|--------------------------------|--------------------------------|
/-------------------------- ovo su dve gitare -------------------------/
Strofa:
A
Otac pita sta cu biti sutra
159
Fism
A sta sam ne znam ja ni ovog jutra
Majka kaze da sam bela vrana
Da sam isti ko cupavci sa ekrana
Refren:
D
Gde ste vile i carobnjaci
Fism
Svi pegazi detinjstva mog gde ste sad, gde ste sad
Gde ste moji verni junaci
Spasite sada mezimca svog gde ste sad, gde ste sad
Intro
Ne spavam vise ko ostali ljudi
U snovima meni uvek se zbog neceg sudi
Presuda glasi gitaru spali
A pravo zalbe nisu mi cak ni dali
Refren:
intro
KERBER :: SEOBE
Intro: Dm
e--5--8-7p5-7-------------5-----------
B-------------8-----5-6-8---8-6-5-----
G---------------7-7---------------7--- x2
D-------------------------------------
A-------------------------------------
E-------------------------------------
Dm C B G
Ptice lete na jug,
G C Dm
I vracaju se.
Dm C B G
Ljudi ognjista gase,
G C Dm
Zauvek odlaze.
Dm C
Zemljina njedra
B G
Su velika k'o Bog,
G C Dm
Sa mlekom za sve.
Dm C B G
Najveci jad je ostaviti dom,
G C
Od nemila do nedraga,
Dm
Pred sudbinom zlom.
Dm G
Ref: Ne ostaju tragovi,
B C Dm
Pesme grobovi ne pevaju.
160
Dm G
Ne ostaju tragovi,
B C Dm
Pesme grobovi ne pevaju.
Dm G B C Dm
e------------------------------------------------------
B----5-6p5-----------5-6p5-----------5-6--8p6p5--------
G--7--------7p5----7--------7p5----7------------7-5-7--
D---------------7---------------7----------------------
A------------------------------------------------------
E------------------------------------------------------
Dm G B C Dm
e-----12-13p12---------------12-13p12--------------12-13-15p13p12---------
B--15-----------15p13-----15----------15p13-----15----------------15-13-15
G---------------------14--------------------14----------------------------
D-------------------------------------------------------------------------
A-------------------------------------------------------------------------
E-------------------------------------------------------------------------
Dm C B G
Ptice lete na jug,
G C Dm
I vracaju se.
Dm C B G
Ljudi ognjista gase,
G C Dm
Zauvek odlaze.
Dm C
Zemljina njedra
B G
Su velika k'o Bog,
G C Dm
Sa mlekom za sve.
Dm C B G
Najveci jad je ostaviti dom,
G C
Od nemila do nedraga,
Dm
Pred sudbinom zlom.
Dm G
Ref: Ne ostaju tragovi,
B C Dm
Pesme grobovi ne pevaju. (xputa)
KERBER - OD SRCA DALEKO
Uvod:
E-10-7-9----- e---------
H--------10-- h---------
G------------ g-7-4-6---
D------------ 8 taktova po 4 puta d-------7-
A------------ a---------
E------------ e---------
Pratnja: Em D Hm A (1 okidanje na 4 solo dionice)
161
Ritam 4-4tinski kroz cijelu pjesmu
Akordi uvoda:
Em x2 D x2 Hm x2 A x2
Prelaz: A x4
Em D
Pariz nocu je kao nar
Hm A
sveci setaju
Em D
sena uzdise zeleno
Hm A
ludi mesec joj ljubi vrat
Em D
kazes kako dobro je
Hm A
da ces me skoro videti
Em D
ni gospod nista ne moze
Hm G
izmedju mene i tebe
G A
a ribe cute, ptice lete
Ref:
D A Hm G D
Od srca si mi daleko Pariz menja sne
A Hm G D (drugi put A)
umrli su bezgresni ja necu bez tebe.
Prelaz
Suze kaplju sa krovova
jutrom se razlivas
tu na mome prozoru
suncem se umivas
a ribe cute, ptice lete.
Od srca si mi daleko
Pariz menja sne
umrli su bezgresni
ja necu bez tebe.
Prelaz:A x4
Akordi za solo: Hm x2 G x2 Hm x2 G x2 A x2 Hm x2
Refren: x4
KRALJEVSKI APARTMAN :: GORE DIGNI GLAVU
Glavni RIF x2: ~
e------------------------------------
h------------------------------------
g------------------------------------
d-----9-9----9-9-9----9-9----9-9-7---
a--10-7-7-10-7-7-7-10-7-7-10-7-7-5---
162
e------------------------------------
Ti i ja cudan par
Lepotica i zver
Ja cudesni pozer
Ti tresnjin cvet
Izgleda nije fer
Ulica pise stihove
Ne radja ratnike
Gubim korak
Grabim dah
Kidam ti latice
Prelaz:
C D E
Kako ljubav da ti vratim
C D E
Kako nadu da ti dam
C D E
Kad i ovo malo nade
C H deo 1
Drugi mi sjebava
deo 1
e-------------------------------
h-------------------------------
g-------------------------------
d-2-------------2-------7-8-9---
a---5-2-5~-2-5*---5-2-5-5-6-7--- *stop
e-------------------------------
refren:
E D
Gore digni glavu
E
Mi smo uvek u pravu
D E D Dis E
Niko nam nista ne moze
E
Gore digni glavu
E
Mi smo uvek u pravu
D C H
Niko nam nista ne moze
Glavni RIF x4
Svaki dan isti dan
Sivilo ubija
Tvoj vedri osmeh jedini lek
Sjebana vizija
Glavu u pesak,koji ce dan
Neko obecava
Ja vaspitan lepo
Verujem sve
Drugi mi kreira
Prelaz: kako ljubav da ti.
163
Refren x2
kraj
e----------------------------------------------
h----------------------------------------------
g----------------------------------------------
d-2-----------2-----------2-----------9-9-7-9--
a---5-2-5-2-5---5-2-5-2-5---5-2-5-2-5-7-7-5-7--
e----------------------------------------------

KRALJEVSKI APARTMAN :: IZABERI JEDAN PUT
Uvod + pratnja E5 denfovano
e-15-12--10-8-7--------------
h---------------8------------
g---------------------------- 4x
d----------------------------
a----------------------------
E----------------------------
Tema x8:
e-0-0-7-0-7-8-5-7-0-0-7-0-10----5-7-
h-----------------------------------
g-----------------------------------
d----------------------------------- prelaz C D D# F#(10.polje)
prvo ide samo tema x4 pa onda jos x4 zajedno sa pratnjom E5 denf
Riff:
E
Ne zovi me kada oko tebe sve se raspada
C E
sve se pretvara u prah.
E
Ne trazi me u snovima, sve je magla pokrila
C E
nigde vise nema nicega.
Iza nas je nastalo i ono sto je vredelo
sve se za jednu noc promenilo, izgubilo.
Sami smo u slepoj ulici koja nikud ne vodi
kao da smo ceo zivot u mestu stajali.
G D E H
Sada je vreme da svako svojim putem krene
C D E temax1
a ja cu reci samo pravo.
G D E H
Izaberi jedan put, a ja cu drugim bilo kud
C D prelaz
tvoje su krivine, a ja cu pravo.
Prelaz H5 C5 D5 E5 x4
Solo
Tema + pratnja x3 + C D D# F#
Iza nas je nastalo i ono sto je vredelo
sve se za jednu noc promenilo, izgubilo.
164
Sami smo u slepoj ulici koja nikud ne vodi
kao da smo ceo zivot u mestu stajali.
Sada je vreme da svako svojim putem krene
a ja cu reci samo pravo.
Izaberi jedan put, a ja cu drugim bilo kud 2x
tvoje su krivine, a ja cu pravo.
KRALJEVSKI APARTMAN :: DAMA IZ KRALJEVSKOG APARTMANA
Uvod:
e-5-5-3-----------------------------------------------------
h-------5-3--3---3-5-3-----------3-5-3----------------------
g-----------5--5-------5-2-2-4-5-------5-4-5-4---2-4-5-2----
d----------------------------------------------5------------
a-----------------------------------------------------------
e-----------------------------------------------------------
Am C
Ja nisam kralj
G Am
A nisam ni dvorska luda
Am C
Ne verujem u magije
G Am
Ne verujem u cuda
Zivim sam na ulici
Od danas do sutra
A ti glumis neku damu
u kraljevskom apartmanu
Zbog tebe sam sve
Bacio u vodu
A ti si okrenula
Ledja svome robu
Nosis zlato oko vrata
Haljine od svile
Stalno mastas do kojeces
Stici visine

A C A C
D C G A
A ti si u stvari samo potrosna roba
A C G
Dok se dajes ti trajes
F G A A C A C
Na kraju se uvek kajes
D C G A
A ti si u stvari samo potrosna roba
C G
Bila jednom dama
F A
iz kraljevskog apartmana
intro:
Zbog tebe sam sve
165
Bacio u vodu
A ti si okrenula
Ledja svome robu
Nosis zlato oko vrata
Haljine od svile
Stalno mastas do kojeces
Stici visine
KRALJEVSKI APARTMAN - RUKA PRAVDE
Intro razlaganje:
e--7-----7----7------8------8----8------7-----7----7---------- |
H----8-----8----8------8------8----8------7-----7----7-------- |
G------9----------9------9-----------9------8----------8------ |
D------------------------------------------------------------- |
A---------------------------------------6--------------------- |
E--0-----------------0---------------------------------------- |
| 2X
-------------------------------------------------------------- |
---5---7---8---10---8---7---5--4------------------------------ |
-------------------------------------------------------------- |
-------------------------------------------------------------- |
---7---9---10--12---10--9---7--6------------------------------ |
-------------------------------------------------------------- |
Intro solo:
e----------7-------------------------------------------------- |
H--------8---8-7h8p7--------7--------------------------------- |
G------9-------------9¬8~-9---9~---9-8-----------8------------ | 2x
D----9----------------------------------10~--9-10-10-9-7-9---- |
A--7---------------------------------------------------------- |
E------------------------------------------------------------- |
e-------------------------------------------------------------------- |
H----------------------------------------------------------10-10/12~- |
G-------8--------------8--------------8--------------8--------------- |
D---9-10-10-9-7-7--9-10-10-9-7-9--9-10-10-9-7-7--9-10-10-9----------- |
A-------------------------------------------------------------------- |
E-------------------------------------------------------------------- |
glavna tema (riff 1) x2:
e-------------------------------------------------------------- |
H-------------------------------------------------------------- |
G-------------------------------------------------------------- |
D--22222-222--22222-222--33333-333--33333-333------------------ |
A--22222-222--22222-222--33333-333--33333-333--3-2-0----------- |
E--00000-000--00000-000--11111-111--11111-111--------3-1------- |
riff 1(E5 E5 F5 E5)
Ne tako davno po ovoj zemlji
gazili su ratnici.
Cuvari hrama, do samog kraja
hrabro su se branili.
C5 A5 H5 E5
Ostri macevi, nebeske munje bez nade
C5 A5 H5 E5 D5
u telu gromovi, celicna ruka pravde
G F# D E F# D G F# D C stop
166
i noci bez snaaa aa aa, noci bez sna
nek nas BOG SACUVA!!!
riff 1
Ja nisam od onih koji mole,
koji traze oprostaj.
Ja nisam od onih koji se kriju,
ratnik ne zaboravlja.
refren
KRALJEVSKI APARTMAN :: NIKAD SE NE PREDAJEM
e----------------------------------------------------------------------
h----------------------------------------------------------------------
g----------------------------------------------------------------------
d-5-5-5-----3------------------------5-5-5-----3-----------------------
a-3-3-3-5-6---6-5---6-6-6-6-5-6-5----3-3-3-5-6---6-5---6-6-6-6-5-6-5---
e-----------------6-4-4-4---------4------------------6-4-4-4---------4-
C5 + uvodni solo
C
Ko su ljudi a ko su zveri
C
ci mac nam sudbinu deli
Gis C
kome smes ti jos da verujes
C
Kome bogu da se molis
C
protiv koga da se boris
Gis C
vuci su gladni oko nas
Gis C
I kad je hladno oko srca
Gis C
kao led koji puca
Dis B
Potrazi dugu potrazi boje
G Gis B
jer negde se kriju i moje i tvoje
refren x2:
C
Stegni me jako nocas tvoja senka postajem
Gis B C Gis G
i nikad nikad se ne predajem
uvodni solo
B-C
Nemoj da stanes na pola puta
B-C
tvoj san nesme da luta
Gis B C deo1
moras sama da odlucis
167
B-C
Kome bogu da se molis
B-C
protiv koga da se boris
Gis B C
vuci su i dalje oko nas
refren x4:
GALIJA - TRUBE
Uvod:
Gm F Gm
e-6-5-8-6--6-5-8-6--5-3-6-5--3-3--15---
Gm
Stare trube kad zatrube
F Gm
Kad me djavo odnese
Gm
Budi hrabra stisni zube
F Gm
Nek te pesma ponese
B F
Od oluje do oluje
B F
Sta je tu je Ne placi
Gm F
Veseli se s ljudima
Gm F prelaz F x1 okini
Udahni me grudima
Gm
Stare trube kad zatrube
F Gm
Kad se tecnost dolije
Gm
Svi vojnici nek te ljube
F Gm
Odavde do Golije
B F
Od oluje do oluje
B
Sta je tu je
F
Ne placi
Gm F
Veseli se s ljudima
Gm F
Udahni me grudima
Gm F
Osetices venama
Gm F
Muziku u stenama
Akordi iz strofe "od oluje" i pjevanje u ritmu
168
Na na na na na
Gm
Stare trube kad zatrube
F Gm
Kad me djavo odnese
GALIJA :: PRAVOSLAVLJE
uvod: D A G A 2x
D A G A
Tvoje misli jedno jezero skriva
D A G A
A tvoja senka cuti i pliva
G A D D
Kosu ti mrsi istocni vetar
G A D A
Milimetar po milimetar
Poruke stizu sa svih strana
Tise od Tihog okeana
Nema leka od ljutih rana
Bice jos dana za megdana
ref:
D A G A
Pravoslavlje dolazi sa juga
D A G A
Pravoslavlje ispunjava zelje
D A G A
Tvoja suza zaledjena ceka
D A G A
Pravoslavlje narodno veselje
uvod: D A G A 2x
Poruke stizu sa svih strana
Tise od Tihog okeana
Samo gole istine bole
Samo gresni vernici za tebe mole
< ref>
GALIJA :: DODIRNI ME
Am C
Gledam te nekim drugim ocima
Am C
upravo onako kako ne treba
Dm Am
u tebi je Vojvodina zaspala
Dm F Am
sto izvora, nigde obala.
I ne shvatam sta mi se desava
nedostaje mi rec koja resava
u tebi je neka tajna ostala
169
ko muzika starih majstora.
Refren x2:
Am G
Dodirni me sasvim slucajno
Am G
poljubi me filmski nestvarno
Am G
i najlepse kad je prestani
F G
okreni se i nestani.
Osecam nesto cudno u vazduhu
ceo svet na jednom jastuku
na postelji od punog meseca
nikom se ovde ne spava.
Refren x2:
Solo+akordi iz refrena

GALIJA :: MOŽDA SAM LUD
F C Dm F C
Zasto mislis da sam lud
F C Dm F C
Bio sam ti samo drug
B F
Lagala si sebe, skim si sad kada proslo je sve
C
Tu sam ti samo ja
B F
Ja volim da se ljubim kao i ti sto malo ko zna
C
Ostadoh samo ja
Ako pitas ko je kriv
Vetar duva uuuu
Bilo ti je glupo, sta ti je sad kada proslo je sve
Tu sam ti samo ja
Ja volim da se ljubim kao i ti sto malo ko zna
Tu sam ti samo ja
F C
Mozda sam lud, mozda lud
Dm B
Sto volim da si opet tu samo dan ili dva
F C
Mozda sam lud, mozda lud
Dm B
Ja osecam da to je sad pa ko zna kad
Mozda sam lud, mozda lud
Sto volim da si opet tu samo dan ili dva
Mozda sam lud, mozda lud
Ja osecam da to je sad, to je sad pa ko zna kad
SOLOx4: Dm B F C
Ako pitas ko je kriv, ako pitas to
Vetar duva uuu,
170
Bilo ti je glupo, sta ti je sad kada proslo je sve
Tu sam ti samo ja
Ja volim da se ljubim kao i ti sto malo ko zna
Tu sam ti samo ja
Mozda sam lud, mozda lud
Sto volim da si opet tu samo dan ili dva
Mozda sam lud, mozda lud
Ja osecam da to je sad pa ko zna kad
GALIJA :: KOTOR
Tema 2x Am G Em Am + SOLO
Am Em G Am
Drsko je imala godina koliko Kotor vekova
Am Em G Am
U sebe sam je sakrio,ko strogu tajnu cuvao
F G Am F G Am
Kako usnama miluje,kako prstima sapuce
U zemlju snova smo otisli,kupine poljupcima delili
Bila je kraljica dodira,moja radost nocima
Kako usnama miluje,kako prstima sapuce - 2x
ref:
C G Am E
Carobnjak je bila,u kosi je krila opojne mirise
C G E
Stalno se secam,Kotoru vracam da opet osetim
F G Am F G Am
Kako usnama miluje,kako prstima sapuce - 2x
GALIJA :: DIGNI RUKU
Uvod:
PM. PM.
E----------------|--------------------------|
H----------------|--------------------------|
G----------------|-7-----7--7-7-8-9-9-9-9-9-|
D-2--------2h4p2-|-7-7-7-7--7-7-8-9-9-9-9-9-|
A-0-0-0--0-0-----|-5-5-5-5--5-5-6-7-7-7-7-7-|
E----------------|--------------------------|
A
Da si na drugom kraju sveta
A
Da vozis neka kola lepa
D E A
Da si prvi, ooo, da si prvi
A
Da rucas negde dole u Kini,
A zube cackas u Karolini
Na Bahamima da imas vilu
Od mnogo zena da dobijes kilu
D E A
Da si prvi, ooo, da si prvi
D E A
171
O da si prvi, ooo, da si prvi
F#m D
Ma digni ruku, digni obadve,
E F#m E
Digni ruke od svega, nemas kartu ni do Pristine
H D
Ma digni ruku, digni obadve,
E F#m
Digni ruke od svega, nemas kartu ni do Pristine
(sve je isto)
Da si na drugom kraju sveta
Da vozis neka kola lepa
Na Bahamima da imas vilu
Od mnogo zena da dobije kilu
Da si prvi, ooo, da si prvi
O da si prvi, ooo, da si prvi
Ma digni ruku, digni obadve,
Digni ruke od svega, nemas kartu ni do Pristine
Ma digni ruku, digni obadve,
Digni ruke od svega, nemas kartu ni do Pristine
Ma digni ruku, digni obadve,
Digni ruke od svega, nemas kartu ni do Pristine
Ma digni ruku, digni obadve,
Digni ruke od svega, nemas kartu ni do Pristine
Ma digni ruku, digni obadve,
Ma digni ruku, digni obadve,
Digni ruke od svega, nemas kartu ni do Pristine
SOLO:
E----------------------------------
H----------------------------------
G-----6--7---6---7-----6---7-------
D-3/7--7---7---7---3/7---7---5-6-7-
A----------------------------------
E----------------------------------
E-12-12--12p----12p----12p--12p--12p----12p
H-10-10--12p-10-12p-10-12p--12p--12p-10-12p
G------------------------------------------
D------------------------------------------
A------------------------------------------
E------------------------------------------
E------------------------------17p--17p--17p--17p-------14-------------------
H----------------------------------------------------17p---17-14----------17p
G-------14-14-16-14-16p-14---14---14---14---14---14--------------17-16-14----
D-12/14----------------------------------------------------------------------
A----------------------------------------------------------------------------
E----------------------------------------------------------------------------
GALIJA :: DA ME NISI
uvod: G F C 2x
G F C
Kad me neka zena podseti na tebe
172
G F C
Dugo ne mogu da pobegnem od sebe
G F C G F C
Najbolje bi bilo da me nisi ni volela
Brodovi su moji duboko u moru
Cujem te u skoro svakom razgovoru
Najbolje bi bilo da me nisi ni volela
ref:
G C
Da me nisi toliko shvatila
G C
Otisla bi i ne bi patila
G C
Da me nisi toliko shvatila
D
Bio bih srecniji
G C
Da mi nisi toliko znacila
G C
Ova noc bi bila drugacija
G C
Da mi nisi toliko znacila
D
Bio bih srecniji
Nocas je na nebu samo jedna zvezda
Najlepsa je ptica ostala bez gnezda
Najbolje bi bilo da me nisi ni volela
Nije lako duso pregaziti reku
Kad se skupi neka suza u coveku
Najbolje bi bilo da me nisi ni volela
refren
GALIJA :: JOŠ UVJEK SANJAM
C G Am
Jos uvek sanjam neke bivse,
D7 G
a mozda me neka i sad ceka
C G Am
Jos uvek ih pamtim po nekim ljudima,
D7 G
mestima i cvrsti grudima
C D7 G
I opet se setim po ko zna koji put
Em C D7
zasto te onda nisam smeo
C D7 Em
a onda mislim ako te ponovo
Hm
budem sreo
Em C D7
zasto te onda nisam hteo
C G Am
173
Jos uvek sanjam neke bivse,
D7 G
a mozda me neka i sad ceka
C G Am
Jos uvek ih pamtim po nekim ljudima,
D7 G
mestima i cvrsti grudima
i opet se pitam po ko zna koji put
zasto te onda nisam smeo
a onda mislim ako te ponovo
budem sreo
ako te ponovo budem (stop)
Refren
C D7 G
one nase pesme i sve sto sam pev'o
C D7 Em
a onda mislim ako te ponovo
Hm
budem sreo
Em C D7
zasto te onda nisam smeo
Refren:
D G
Jos uvek sanjam x3
D Em D
staru ljubav a onda trazim bilo koju
GALIJA I KERBER :: SLOBODA
uvod: G D G D C D
G D C
Moja su braca zatvorena
Am Dsus4 D Dsus2 D
Negde daleko od jutra
G D C
I nema vise nikoga
Am Dsus4 D Dsus2 D
Ko ce te voleti sutra
Moje su sestre ostavljene
Negde daleko u cvecu
I nema vise nikoga
Ko ce zapaliti svecu
ref:
G D G D
Kao na slikama, u teskim mukama
C D
Umirem na tvojim rukama
G D G D
Kao u pesmama, sloboda polece
C Dsus4 D Dsus4 D
Uzalud dolazi prolece
< uvod>
174
Moji su preci putovali
Negde daleko od mora
I nije bilo nikoga
Kome je svanula zora
Moja je vrba zasadena
Negde daleko u travu
I nema vise nikoga
Ko ce sacuvati slavu
GALIJA :: NA TVOJIM USNAMA
Gm D/A
Na tvojim usnama
Gm D/F#
kad budes zaspala
dva cu ti tiha napisati stiha
na tvojim usnama
pred tvojim ocima
gorece slika voljenog lika
pred tvojim ocima
B F D# D
Neka te niko ne pozeli ove noci
B F7 D# D
neka te niko ne probudi
neka te niko ne pozeli ove noci
neka se niko ne usudi.
U tvojim snovima,kad budes zaspala
teci ce neka reka daleka
u tvojim snovima,kad budes zaspala
jednog ce dana boleti rana
u tvojim nocima.

GALIJA :: SKADARSKA
uvod: E
E C#m
Ne mogu da vidim ulicu kao sto je Skadarska
E C#m
Ne mogu da cujem muziku kao sto je madjarska
D E
Ne mogu da shvatim obalu kao sto je Jadranska
D E
Tamo nema vise nikoga kao sto smo ti i ja
H A E
Samo dva prozora, kao dva ponora, vode do dna
Ne mogu da pijem rakiju kao sto je cacanska
Ne mogu da volim carsiju kao sto je Makarska
Ne mogu da shvatim podelu kao sto je balkanska
Tamo nema vise nikoga kao sto smo ti i ja
Samo suprotnosti, koje se privlace, kao i pre
175
Ref x2:
E C#m H E
Ti se nikad nisi pitala gde se zatvara krug
E C#m H E
Ti se nikad nisi pitala ko je najbolji drug
G# C#m G# C#m
Ti se nikad nisi pitala kako nastaje greh
G# C#m H E
Ti se nikad nisi pitala zasto prestaje sve
solo
refren
Ne mogu da shvatim obalu kao sto je Jadranska
Tamo nema vise nikoga kao sto smo ti i ja
Samo dva prozora, kao dva ponora, vode do dna
solo
!! F7 xx124x !!
!! Emaj x7989x !!
Solo: E Emaj E7 A Am E H A, E Emaj E7 A Am E, H, A, E
E||--------|--------------------|--9--------------------|
B||--12----|--9-10--12----12----|-------10----9----9----|
G||--------|--------------------|-----------------------|
D||--------|--------------------|-----------------------|
A||--------|--------------------|-----------------------|
E||--------|--------------------|-----------------------|

------------------------|-------------------------|-----------------------|
--10--------------10----|--12----9----------------|--9---------------9----|
--------9----9----------|-------------11----11----|-------9----11---------|
------------------------|-------------------------|-----------------------|
------------------------|-------------------------|-----------------------|
------------------------|-------------------------|-----------------------|

-----------------------|------------------------|-------||
--9----10--------------|--10----9---------------|-------||
-------------9----9----|-------------9----11----|--9----||
-----------------------|------------------------|-------||
-----------------------|------------------------|-------||
-----------------------|------------------------|-------||
DEJAN CUKIĆ:: NEBO JEDINO ZNA
Uvod x8: A Asus4 (Asus4-X02230)
Strofa:
Asus4 A
Gazim kroz noc
Prasnjavi koraci
U moru secanja
Ostavljam sve
Laku vam noc
Pospani oblaci
Svi moji putevi
Vode do nje
176
Refren:
D
Nebo jedino zna
A Asus4 A Asus4
Samo tebe sam ljubio
D
Nebo jedino zna
A Asus4 A Asus4
Zasto sam te izgubio
E Fism
Neka uzme mi sve godine
D A Asus4 A Asus4
Za noc kraj tebe
Gazim kroz mrak
Pricam sa zvezdama
U tvojim mislima
Da l' ima me
Nosi me put
Snovi na nogama
Srcem u grudima
Dozivam te
refren
Gazim kroz mrak
Pricam sa zvezdama
U tvojim mislima
Da l' ima me
Nosi me put
Snovi na nogama
Srcem u grudima
Dozivam te
refren
DEJAN CUKIĆ :: BEZ TEBE
Tema:
Em G G D C C
E|----------------|----------------|----------------|----------------|
H|------------12--|(12)------------|----12--15------|----------------|
G|----12--14------|----------------|14----------12--|(12)------------|
D|14--------------|----------------|----------------|----------------|
A|----------------|----------------|----------------|----------------|
E|----------------|----------------|----------------|----------------|
Em G G D C C
E|----------------|----------------|10s-12------12--|(12)------------|
H|------------12--|(12)------------|----------------|----------------|
G|----12--14------|----------------|----------------|----------------|
D|14--------------|----------------|----------------|----------------|
A|----------------|----------------|----------------|----------------|
E|----------------|----------------|----------------|----------------|
Strofa:
Em G D C
Gledam u nebo nebo gleda me
Em G D C
177
Sa neba sigurno se vidi sve
Em G D Am
Onaj odozgo verovatno zna
C D Em (G D C - samo posle prve strofe)
Kuda si otisla
U sobi hladan vazduh dim i ja
Svetlost u mome srcu zaspala
Mrak je sa obe strane prozora
Otkad si otisla
Prelaz:
D G
Pamet mi kaze zaboravi
Am Em
Al' srce ne slusa
D Am
Neka te paze dobri bogovi
C D Em
Kad nisam znao ja
Refren:
D G D G
I ne znam sta, i ne znam gde
D G Am Em
Ni sta ni gde da radim bez tebe
D G D G
I ne znam sta, i ne znam gde
D C stop
Ni sta ni gde bez tebe
intro

U sobi hladan vazduh dim i ja
Svetlost u mome srcu zaspala
Mrak je sa obe strane prozora
Otkad si otisla
prelaz
refren
DEJAN CUKIĆ :: DOLAZI TI%O
Tema:
Em C C D G G
E|-------------12--14--|----15------10--|----------------|----------------|
H|-12-10----12---------|----------------|----10------12--|--------12--10--|
G|-------12------------|----------------|----------------|----------------|
D|---------------------|----------------|----------------|----------------|
A|---------------------|----------------|----------------|----------------|
E|---------------------|----------------|----------------|----------------|
Em C C D G G
E|----------------|----------------|----------------|----------------|
H|------------13--|(13)12----------|----------------|----12--10------|
G|12--------------|--------14--12--|11----------12--|------------12--|
D|--------14------|----------------|----------------|----------------|
A|----------------|----------------|----------------|----------------|
E|----------------|----------------|----------------|----------------|
Em C C D G G
E|----------------|----------------|----10----------|----------------|
178
H|----12------13--|----10----------|------------12--|--------12--10--|
G|12--------------|------------11--|----------------|----------------|
D|----------------|----------------|----------------|----------------|
A|----------------|----------------|----------------|----------------|
E|----------------|----------------|----------------|----------------|
Em C C D G G
E|----------------|----------------|----------------|----------------|
H|------------13--|(13)12----------|----------------|----------------|
G|12--------------|--------14--12--|11----------12--|----------------|
D|--------14------|----------------|----------------|----------------|
A|----------------|----------------|----------------|----------------|
E|----------------|----------------|----------------|----------------|
Strofa:
Em C D G
Dolazi tiho
Em C D G
Kao stihija
Em C D G
Razbija snove
Em C D G
Kao ogledala
Prelaz 1:
C D Em
To nije stvarnost
C D
Ali nije ni san
Pratim vec dugo
Njene pokrete
Nesto me muci
Reci odluke
Prelaz 2:
C D Em
Ja sam u mraku
C D H7
Rusim zidove
H7 Em
Nesto nije u redu
Refren:
Em C D G
Sad znam da je ljubav
Em C D G
Okean sto odnosi sve
Em C D G
Sad znam da je ljubav
Em C D G
Talas koji nestaje
DEJAN CUKIĆ :: JA BI% DA PEVAM
A
ti mi gledas u dlan, kazes prava divota
vidi se jasno ko dan, dugacka linija zivota
a mene salju u rat, uzas i strahota
ako mi polome vrat kraca je linija zivota
179
A
ja bih da pevam jos malo
Hm
jer je zivot samo jedan
D E
i do njega mi je stalo
A
meni je vredan
nikog ne poznajem tamo ni tudjega ni svoga
oni mi kazu pucaj samo, al' ja ne znam u koga
guraju me u stroj, na glavu mi se penju
ja nisam covek ja sam broj i postupam po naredjenju

DEJAN CUKIĆ :: JULIJA
Uvod: G, C D
Strofa:
G C D G C D
Jos pamtim tvoje usne kako ljube prvi put
G C D G C D
Jos vidim tvoje oci tvoje suze uzalud
Am C G
I ljubim tle po kome hodas
Am C D
I cujem svaki korak tvoj
Refren:
G
Moja Julija
C D G
Ti si moja Julija
C D G
Imam svet pod nogama
C D G
Al' meni treba tvoja ljubav
Danima se borim sam sa sobom nisi tu
I nocima vec gorim istom vatrom i u snu
Ja trazim ruke koje volim
I opet gledam osmeh tvoj
DEJAN CUKIĆ :: LETNJE KIŠE
E
Uzela je kofere
E
Tog je jutra puklo sve
Cis A
Nije bilo suza
E
Nije bilo tuzno
Kad je stvari skupila
Pogledom je rekla sve
Ostalo je samo
Osecanje ruzno
180
H
Znao sam da nikada
Njeno malo stopalo
Nece stati na moj prag
Sve je propalo niceg nema vise
A H E
Kao letnje kise
A H Cism A
U trenutku srusilo se sve
A H E
Kao letnje kise
A H Cism E
Iznenada i bez najave
Kad je stvari skupila
Pogledom je rekla sve
Nasa prica davno
Trebalo je da se skrati
Nisam ni pomisljao
Tad da je zaustavim
Znao sam kad krene
Nikad nece da se vrati
DEJAN CUKIĆ :: MOKRE ULICE
F C G
Sanjam kabanice
G
Da li znas da moja ljubav nema granice
D
Ipak nije nuzno biti uvijek kraj tebe
Em D C G
Jer ja te volim Milice.
Da li znas za razlog zasto nocu spavam sam?
Mozda bude bolje ako pogledas u dlan
A dlan mi je zeljom oderan.
D C G
Ja stojim ovde visok do tavanice
D C G
I moja ljubav za te nema granice
Em D C G
Jer ja te volim Milice.
Prolazim niz beogradske mokre ulice
U mislima ja nosim tvoje poljupce
I sanjam bez kabanice.
Ref:

Em D C FCG
I sanjam bez kabanice
F C G
A sve niz mokre ulice.
181
Solo klavir
EKV :: KAO DA JE BILO NEKAD
intro: x2
Bm
E--9-------9-------9-------9-------9----------|
B----12------12------12------12------12----12-|
G-------11------11------11------11------11----|
D---------------------------------------------|
A---------------------------------------------|
E---------------------------------------------|
F#m
E---------------------------------------------|
B--9-10----9-10----9-10----9-10----9-10----10-|
G-------11------11------11------11------11----|
D---------------------------------------------|
A---------------------------------------------|
E---------------------------------------------|
Bm
I kao da je bilo nekad,
F#m
I kao da je bilo tu,
Bm
Pod velikim, svetlim suncem,
F#m
Pod velikim, svetlim svodom.
Rucali smo meso,
Glodali smo kosti dobrih zivotinja,
Mi imamo snage,
Mi imamo snage za jos dan.
F#m Fm Em
Mi menjamo dan za noc,
Bm
Mi menjamo noc za dan,
Bm Fm Em
Mi menjamo dan za noc,
F#m
Mi menjamo noc za dan.
Prolaze brodovi,
Trube u cast, zvone na uzbunu,
Deca uce da placu,
Deca uce da poznaju svoj glas.
U toplim jaslama,
U hladu bora pod zidom cempresa,
Mi menjamo nasu noc
Za neki tudji dan, za neki tudji dan.
Mi menjamo dan za noc,
Mi menjamo noc za dan...
182
EKV :: KRUG

INTRO: A5 G5 x4 (u nekom brzom ritmu svirati)

VERSE:|Am |F |C |G |
Ovaj krug sam smislio,
Ovaj krug sam stvorio.
Ovaj krug sam razbio,
U vetar rasuo.

Vetar misli, vetar zna
Sve sto znamo ti i ja.
On me voli, on me nosi,
On me razbija,

RIFF2: x4
Aha..,Aha..,Mmm..Aha
E-|---------------
B-|---------------
G-|---------------
D-|-7-------------
A-|-7-0-5-6-7-----
E-|-5---------0-0-
I kao da sam umoran,
I kao da sam star.
Kao da je dosadno
I suvise da znam.

Ovaj krug sam skupio
I opet sklopio.
On me voli, on me nosi
On mi oprasta,

RIFF2:
Aha..,Aha..,Mmm..Aha
Bb G
I kao ne, i kao da,
Bb G
I kao zabrana, i kao dozvola,
Bb G
Kao ne, ne, ne, i kao da, da, da,
Bb E
Kao zabava i kao dosada.

Intro pa sve ponovo od pocetka
EKV :: RADOSTAN DAN
Sviraju se riffovi
F#
Kakav radostan dan
Crnci pevaju aleluja
E
Kakav radostan dan
183
F#
Ptice pevaju aleluja
F#
Ti imas svoj strah
Ti imas svoj strah od sebe
E
Ti imas svoj struk
F#
On je vol vehr mour
E E
Ti si volela moj Weltschmertz x2
F# F#
Da da da dauuu
F#
Kakav radostan dan
E
Ti imas svoj strah od sebe
F#
Kakav radostan dan
Bolje da uuuuuu
E E
Ti si volela moj Weltschmertz x2
Kakav radostan dan
Crnci pevaju alelujah
Kakav radostan dan
Ptice pevaju aleluja
E E
Ti si volela moj Weltschmertz x2
F# F#
Da da da dauuu
EKV :: PAR GODINA ZA NAS
Upad: C C
Sa wah-wahom: Am D Am D x2
Kraj: C C
Am
Moj prijatelj i ja sedimo na klupi, gledamo zvezde,
D
Slusamo vesti sto su upravo stigle.
Am Bb Am
Kazu da imamo jos samo par godina za nas.
Am
Imali smo igracke, iziveli smo sve,
D
Sve one igre na srecu, one igre za ljude
Am Bb Am
sto je smislio neko pre samo par godina za nas.
C D
Da li znas kako zelim da te nadem?
C D
Da li znam sta treba da znam?
C D Am
184
Voli me kako nikad nisi volela.
Zivimo u pricama, branimo se, hodamo i slavimo
Neke bezvezne stvari, neke bezvezne price
sto je smislio neko u samo par godina za nas.
Nisu dovoljne reci, samo obicne reci
Da me vrate u zivot, nije dovoljan dodir,
Ni da znam da te imam, jos samo par godina za nas.
Da li znas kako zelim da te nadem?
Da li znam sta treba da znam?
Voli me kako nikad nisi volela.
Am G D C C
Am G D C C
Voli me onako kako nikad nisi volela,
Am G D C C
Voli me onako kako nikad nisi volela.
Raste kao nada, kao more, kao govor,
Kao pokret, kao zora, kao dete, kao krv,
Kao zelja medu nama.
Raste kao bol i grize sve pred nasim ocima.
Voli me onako kako nikad nisi volela,
Voli me onako kako nikad nisi volela...
EKV :: ZEMLJA
Intro riff:
E-----------------|
H-----------------|
G------6br---6----|
D----7-----7---5--|
A--0--------------|
E-----------------|
A
Ovo je zemlja za nas
ovo je zemlja za sve nase ljude
ovo je kuca za nas
ovo je kuca za svu nasu decu
C E
Pogledaj me o pogledaj me
A
ocima deteta
U zemlji vidim spas
Iz sna me budi glas koji prepoznajem
Dok grane miluju nasa tela
To senke prave pokrov za nas.
A
Cujem vrati se
G
cujem ostani
A
cujem vrati se
185
C E A
dozvoli mi
U svakom porazu
Ja sam video deo slobode
Jer kad je gotovo
Za mene znaj tek sad je pocelo.
Refren
OKTOBAR ,*.2 :: NAĐI ME
uvod: Dsus4 Dm Dsus4 Dm Dsus2 A
B C
Kada mislis da si sasvim sam
B C
I da jutro skriva novi dan
B C
Kad na svetu nemas nikog svog
B C
I svemu vidis samo bol
B C
Kada zvezde budu nebu tom
F A
Pridji tada... tada kad si sam
ref:
A Dm A
Nadji me, da ti ruke svoje dam
A Dm A
Nadji me, da ti cuvam davni san
Kada mislis da si blizu dna (da si blizu dna)
Da ti treba neko ko te zna (neko ko te zna)
Sreca jedva daje secanje (daje secanje)
Ali nikad nemas deo nje (nemas deo nje)
Kad ceo zivot stane ti na dlan
Pridji tada... tada kad si sam
Refx2:
A Dm A
Nadji me, da ti ruke svoje dam
A Dm A
Nadji me, da ti cuvam davni san
Kada mislis da si sasvim sam (da si sasvim sam)
I da jutro skriva novi dan (skriva novi dan)
Kad na svetu nemas nikog svog (nemas nikog svog)
I svemu vidis samo bol (vidis samo bol)
Kada zvezde budu nebu tom
Pridji tada... tada kad si sam
Refx2:
GIBONNI :: LIBAR
Uvod:
186
e I-----------------------------------------1-------------------
H I--------------------------------------1----------------------
G I----------------------------0-2-0----2-----------------------
D I-----0-0-3-0-0--------0-0-3-------3---------------0-0-3-0-0--
A I--0-3-------------0-3-------------------------0-3------------
E I-------------------------------------------------------------
Intro: Dm CDm FCF Dm C Dm
Dm F FCF DmCDm
U libar svojih dugova upisi mene,
Dm F FCF Dm DmCDm
jer odavno te kupujem s onim sto si htjela cut
Dm F FCF B
od straha da ne potone tvoja ljubav za mene
C F B
kao pcela u zlici caja dok drzi dah...
Dm
ja nemam razloga za strah.
Dm B F C
Dajem ti verse i note
C Dm B F C
sve moje sarene perle na dar..
Dm B
Jos te mogu pjesmom kupiti
F C
lukavo i slatkorjecivo,
Dm B A7 Dm
jos uvijek mogu ti podvaliti ljubav..
I sve cu ti obecati, sve sto hoces
moju kozu, moju kost i lice koje pozelis
Od straha da ne potone tvoja ljubav za mene
kao pcela u zlici caja dok drzi dah....
ja nemam razloga za strah.
MINĐUSARI :: POLJUBI ME NJEŽNO
C#m
Duga je noc
F#m A H
znas da ponekad samoce se bojim
C#m
ostani jos samo malo
F#m A H
da gasim zar sa usana tvojih
A C#m
one nam daju ljubavni plam
A H
one su najljepse sto o tebi znam.
Duga je noc
a znas da istina ponekad boli
ostani jer ti si me ucila kako se voli
i druge sam ljubio, oko moje
al' najdraze mi bile usne tvoje.
E H
187
ref. Poljubi me njezno, zagrli me jako
F#m C#m
u ovom trenutku najljepse je tako.
PILOTI :: ČINI MI SE DA
E C#m E C#m
Upali svetlo i sredi stan
E C#m E C#m
popravi sminku, skoro ce dan
E H A E H E
jer ne zna niko da si nocas sa mnom bila.
H A E H E
vesto si tajnu sakrila.
pricas o Bogu, da tajne zna.
o ravnotezi izmedju polova.
kazes da reci govore sve sto nisi htela.
lazes da nikad nisi volela.
refren:
G C D
cini mi se da ti srce jace kuca
G C D
kao da ti haljina po savu puca
G C D
kao da ti tece mastilo kroz vene.
G C D
a mama ti je rekla:''cuvaj se od njega'',
G C G
mozda ti je ipak zao posle svega
G C D G
sto se nisi nikad cuvala od mene.
upali svetlo i sredi stan
popravi sminku (da si spretnija)
skoro ce dan (bila bi sretnija)
jer ne zna niko da si nocas sa mnom bila
vesto si tajnu sakrila
refren: x 1
kazes da reci govore
sve sto nisi htela.
lazes da nikad nisi volela.
refren: x 2
PILOTI :: KAO PTICA NA MOM DLANU
Dm C Dm
Kao ptica na mom dlanu skakuces
C Dm C F
Priznacu ti zasto volim prolece
A Dm C Gm
Podelicu i ovu noc sa zvezdama
Bb C Dm C A
Prekricu te nebom kad budes zaspala
188
Otopicu ti led sa usana
Dacu sve sto imam za tvoja oka dva
Kao mesec kad proviri iz tvoga dvorista
Obasjacu ti lice kad budes zaspala
refren:
Bb F A
Ne znam kako da pobegnem od sna
Bb F A
I ne znam dal te iko voli kao ja
Bb F Gm A Bb
Ma ne bi ova noc tako bolela
C Dm C A
Da me nisi volela
Kao osmeh letnje noci nestajes
Znam da neces doci ipak cekam te
Osetices nocas miris tresanja
Znaces da sam budan kad budes zaspala
refren
PILOTI :: LETO
uvod: Dm, Gm/D, C, F, A7, Dm, Gm/D, Gm, A7, Dm
Dm B Gm Dm
Ja sam sanjao belog goluba
Dm B C F A7
i tvoje oci boje kestena
Dm B C F A7
leto je bilo kad si otisla
Dm B Gm A7 Dm
ovo leto me na tebe podseca
Noc je sakrila tvoje korake
a moja ulica na tebe mirise
leto je bilo kad si otisla
ovo leto me na tebe podseca
PILOTI :: KADA SANJAMO
uvod: D5 brzo u ritmu
riffovi:
D
Zatvori oci
Ja ne znam da li cu moci
Hm
Da sanjam ovaj put
D
Sanjamo boje
Nije vazno da l' su moje ili tvoje
Hm
Ljubis me na ulici
189
A G
Uvek dodjes mi
A D
Zatvoris oci i sanjamo
D
Samo jos jednom
Neka bude jos jednom
Hm
Poljubi me na ulici
D
Neko kuca na vrata
Zasto otvaras strancu
Hm
Sa osmehom na usnama
A G
Ne znam da li je gotovo
A
Al' da li pamtis ono sto sam rekao
refren:
D A Hm
Svet je lep kada sanjamo
G A D
Kada sanjamo
D A Hm
Hajde zajedno da sanjamo
G A D
da sanjamo
Svet je lep kada sanjamo
Kada sanjamo
Hajde zajedno da sanjamo
E
da sanjamo
uvod
refren
ZABRANJENO PUŠENJE :: OD ISTORIJSKOG AVNOJA
Uvod/tema:
|D A |D G |D A |D | x2
E|--------------------------|---------------------------|
B|--------------------------|---------------8---x--8----|
G|--------7-----6--------7--|-----7-----x---7---7--7----|
D|--7--7--7-----7----x---7--|-----7-----x---------------|
A|--5--5-------------x------|---------------------------|
E|--------------------------|---------------------------|

--------------------------|--------------------------|
--------------------------|--------------------------|
--------7-----6--------7--|-----7---------7-----7----|
--7--7--7-----7----x---7--|-----7-----x---7-----7----|
--5--5-------------x------|-----------x--------------|
--------------------------|--------------------------|
D A D G
Cetr'es'pete njega je primila Partija,
190
D A D
a s vojskom je us'o u Trst.
D A D G
Sada ulazi na vrata komesarijata,
D A D
A prima ga Crveni Krst.
F C
Njegov sin vise nema svoga osmjeha,
F C
Po kom su ga znale cure s Koseva,
D A D G
Kaze, stari, tvoja Juga je veliki zajeb,
D A D
Tebe i tvojih komunjara.
C F E
A stara sjedi i place___,
F C G
Kaze, Dragane, pusti vijesti malo jace___.
D A D G
Od istorijskog AVNOJ-a, do izbjeglickog konvoja
D A D
Preko Sremske Race.
D A D G
D A D
U njemu tece krv radnih akcija,
Kad se diglo i selo i grad.
Bio je on bez igdje icega,
ali nikad prazan ko sad.
Stari sad se vidi, sad se vraca,
S kim ste htjeli da budete braca,
Zajebo vas Tito i Partija cijela,
Sloboda ocigledno nije umjela da pjeva.
A stara sjedi i place,
Kaze, Dragane, pusti vijesti malo jace,
Od istorijskog AVNOJ-a, do izbjeglickog konvoja,
Preko Sremske Race.
Ponekad sanja smrt kako se sunja,
I odvodi najbolje drugove.
A ponekad usni nerodjenog unuka,
sto zbori Majakovskog stihove.
S barikada se cuje "No Pasaran",
O kako je cudan bio taj san,
Tu je ceta proletera, zastava crvena,
Tu je slika Ive Lole Ribara.
A stara veli dosta svadje,
Kaze, Dragane, pusti vijesti malo jace,
Od istorijskog AVNOJ-a, do izbjeglickog konvoja,
Preko Sremske Race.
ZABRANJENO PUŠENJE :: LUTKA SA NASLOVNE STRANE
191
Am F
U tebe smo se kleli
C G
Na tebe trosili platu
Am F
Zamisljali trenutke s tobom
C G
U kafani lagali jedan drugog.
Zbog tebe smo se tukli
Kupovali vrucih djevreka
O, kako si samo odudarala ti
Od memle i blata Sedrenika.
F
Al' tvoje su misli bile daleko
Am
Htjela si u fotomodele
F
Skupa svila i supe fele
G
I gola si se slikala, vele.
Zbog tebe smo se tukli
Kupovali vrucih djevreka
O, kako si samo odudarala ti
Od memle i blata Sedrenika.
Virili smo dok se presvlacis
Ma nije bilo ljepse pod Alahovim svodom
Pjesme smo ti pjevali
A tvoja nas je nana polijevala vodom.
Al' tvoje su misli bile daleko
Htjela si u fotomodele
Skupa svila i supe fele
I gola si se slikala, vele.
C Am F C G
Htjela si da tvoje aktove vidi barem pola svijeta
C Am F
A sada u granapu Sedrenika, lokalni dripci te pitaju
C G
Lutko, posto je pasteta?
ZABRANJENO PUŠENJE :: NA STRAŽI PORED PRIZRENA
Am
Mozda je veceras tvoja grupa, mozda je veceras akcija
(E) F
Bukurija je ostala sama i ceka jutro i poljubac
Dm E Am
Cula ludacki rade, da shvatis nema vremena
F G F
Prst na obaracu i kletva u zraku, na strazi
G Am (Am Em7 Am Em7) G
Na strazi pored Prizrena
Kazes, treba platit racune jer duhovi lutaju poljima
Kazes, treba platit racune da cvijece nikne iz grobova
192
Vjerujes da ce nestat prokletstvo sto ga vjetar nosi sumama
Kad jedan od nas bude u blatu, na strazi
Na strazi pored Prizrena
E Am
Na strazi pored Prizrena
Am G F G
Solo...
G Am
Na strazi pored Prizrena
E Am
Na strazi pored Prizrena
Mozda je veceras tvoja grupa, mozda je veceras akcija
Bukurija je ostala sama i ceka jutro i poljubac
A nocas ce krv umjesto vina da zgrije srce do ljubavi
Zbog sumnjive slave i tudjih grijeha ginu
Ginu mladi lavovi
F E Am
Zamisljam, nedjelja je i lijepo smo se obukli
F G Am
Dvije djevojke hodaju s nama po toploj prizrenskoj kaldrmi
F G Am
Ponosni i jaki ko dva mlada jelena
F E F
Bit ce mi zao sto smo se sreli na strazi
E Am (Am Em7 Am Em7)
Na strazi pored Prizrena
Metak je nestrpljiv u cijevi, u ucima zvoni naredba
Pucaj na sve sto je sumnjivo, momce, ne zali iredentista
Cula ludacki rade, da shvatis nema vremena
Prst na obaracu i kletva u zraku, na strazi
Na strazi pored Prizrena
Am G F G
Solo...
F E Am
Na strazi, na strazi pored Prizrena
E Am
Na strazi pored Prizrena
ATOMSKO SKLONIŠTE :: ZA LJUBAV TREBA IMAT DUŠU
UVOD: A (A-A4-A9)
A (A-A4-A9 ... itd)
Uz stol na tri noge
A
Bez ijednog cavla
A
Sjele su u pet do ponoc'
G D A
Da prizivaju duhove
U polutamnoj sobi
193
Sklopile su svoje oci
Ispruzile bijele prste
I saputale njegovo ime
U tren se pretvorilo
Hiljadu noci i dana
Odgovora nije bilo
Jer za ljubav treba imat' dusu
SOLO:
C G D
E|---12-12-12-12-12------------------------------------------------------||
B|---13-13-13-13-13---12---12---12---12---12----12--10--------12--10-----||
G|--------------------12---12---12---12---12----12--11--11----12--11--11-||
D|------------------------------------------------------12------------12-||
A|-----------------------------------------------------------------------||
E|-----------------------------------------------------------------------||
OLIVER MANDIĆ :: ODLAZIM$ A VOLIM TE
B F Gm D# X2
B F Gm F D#
Jedan od nas uvek gubi, jedan vise da
B F Gm F D# B
Kad se ljubav muci gasi, jedan uvek zna
F Gm D# B
jednom sam to bio ja drugi put si bila ti
F Gm D# B
oba puta znali smo da cemo se rastati
B Gm D# F B
dodjavola sve, dodjavola sav bol, odlazim, a volim te
Gm D# F B
ljubavi jedina na svetu,ne krivi me, ne krivi me X2
sve ponovo iz pocetka, uvod
OLIVER MANDIĆ:: LJULJAJ ME NEŽNO
UVOD: E
E
Ja sam tu i nisam neko cudo
E
Ti si tu i bilo bi nam ludo
A E
A ljubav je nasa vrela i ne zna sta je led
A E
Mi hladimo ledom cela i jedemo samo med.
G A
Ispijen i umoran pred tobom sad stojim
F#m B
I dok ti blistas, ja se bojim, bojim.
E A
Ljuljaj me nezno
194
F#m B
Ljuljaj me fino, polako
E A
Ljuljaj me nezno
F#m B
Ti znas da je bolje tako x2
BREAK: E (uvod tema)
Ja sam tu ...
Ljuljaj me nezno ... x2
SOLO: (verse pratnja)
Ljuljaj me...
TRAGAČI :: TRESE$ LUPA$ UDARA
UVOD: A x 2 pa A5 denfovano
G C D A + solo
A 4 takta
A D
Gledaj me dobro i slusaj me sad,
A D
uzet cemo ovo i spustit se u grad,
A D
dok idemo dole tiho i polako,
A D
podize nas gore, razbice nas lako.
G C D A
Kako trese,lupa, udara,
G C D A
Kako trese,lupa, udara,
G C D A
Kako trese,lupa, udara,
G E A ... solo
odnos snaga 10:2, tako samo mogu ja.
Sve od pocetka ponovo
refren
OSVAJAČI :: DUŠA KAD IZNEVERI
intro (u ritmu): Em D Em x7 , Em D C-let ring Em-let ring
Em
Na zidu se noc sa senkama zlim
C
I lutkama tvojim ljubi
Em
Ko slomljen brod, olujama brat
C
Moj pogled u tebi se gubi
D C D-let ring
195
Al` kasno je da cuvas me...
Ref x2:
Em D
Dusa kad izneveri
G Hm C D
sve teze je i teze
Em C
kad pobegne i ostavi
D Hm C D
sta me to za tebe veze?
Uvod
Dok zadnji ti put moj umorni um
spava na nedrima golim
ja poslednji put kanonima sna
pevam koliko te volim
Al' kasno je da cuvas me
Ref x2.
Solo i harmonizacije
Ref.
OSVAJAČI :: TRI BOJE DUGE
1STROFA-Muskarac
D A
nose mi reke neke pesme daleke
G D
kao nekad kad sam jos bio mlad
F# Hm
zivot je san kad brzo osvane dan
G A
ja se budan pitam gde sam to sad
2STROFA-Cura
D A
neke godine davne uvek teske i slavne
G D
kao zid sad stoje izmedju nas
F# Bm
tuzan je kraj kad rdja prekrije sjaj
G A
i kad novo jutro ne nosi spas
3STROFA-Cipi
G D A
dani su mi klatno
Am G D
kucaju vreme kao sat
G
a moj zivot je platno
A Bm
uvek je ista slika
REFREN-Svi zajedno
D
tri boje duge
Bm
196
i more tuge
G
kroz noci duge
A Bm
ne cujem ti glas
D
mi smo iz daleka
Bm
na kraju sveta
G
(NEK NASA LETA
A Bm
SECAJU NA NAS)
4STROFA-Cura
D A
meni ne treba drama to je losa reklama
G D
malo srece samo zelim usput
5STROFA-Muskarac
F# Bm
samo ti umes i kad hoces razumes
G A
da sam nekad malo umoran ljut
2STROFA-Cipi
3STROFA-svi zajedno
REFREN2X-Svi zajedno
OSVAJAČI :: DA TE MILUJEM
Intro: Cm Bb D# Bb x2
1STROFA
Cm A# D# A# Cm Bb D# Bb
Noc, budan sam dok mirno spava grad
kroz prozor svoj prah posipa nam san
oh, kada bih znao da cujes moj glas
Cm A# D# A# Cm Cm G# Cm
sve otkrio bih, znao bih gde si sad

2STROFA
G# A#
Da li ljubav koju znam
G# Cm
mogu muzikom da dam
A# G#
ovim notama da snem
Cm A# G# A#
da te milujem 3X
SOLO:
Cm D# A# G# Cm
---------------------------------------------------
-----------------------8---------------------------
-----------8-7----8-10---10-8-10-8-7-8-10-5/7------
8-10-10-10-----10-----------------------------10-10
---------------------------------------------------
---------------------------------------------------
197
D# G# A# Cm A# G# A# C
---------------------------------------------------
----------8---------6------------------------------
8/10-8-10---7/8-7-8---5/7----7-8-7-----------------
--------------------------10-------10-8-10-8-------
---------------------------------------------10----
---------------------------------------------------
3STROFA
Cm A# G# A# Cm
Svoj najlepsi stih hteo bih da dam
Cm A# D# A# Cm
tvom bezbriznom snu da ljubi te svu noc
Cm A# D# A# Cm
ne, niko od nas ne ostaje sam
Cm A# D# A# Cm G# Cm
sve vratice nam cudna moc zvukova
2STROFA
SOLO:
Refren:3x
Cm
Doci cu ti ja u san
D# A#
svaku noc, svaki dan
G# Cm
samo da te milujem
D# G# A# Cm
da ti ljubim snene oci, da te milujem
OSVAJAČI :: GDE DA POBEGNEM
rif 1 - klavijature
E|----------------------|---------------------|
H|----------------------|-------4-5-----5~----|
G|-4~-4-5---4---4-------|-4-5-7-----4---------|
D|--------7---5---7-----|-------------7-------|
A|------------------7~--|---------------------|
E|----------------------|---------------------|
A onda ulece gitara:
rif 2 rif 3
E|----------------------|---------------------|
H|-/5-------------------|---------------------|
G|----7-5-------4-5-----|-------5-4-----------|
D|----------4-5-----5---|-5-4-5-----5-4-5-4---|
A|--------7-----------7-|---------------------|
E|----------------------|---------------------|
\----ovaj deo x3----/
Em D G Am Em
Nocima luduje votka u mojim venama.
Sta me to sludjuje, sta je to bilo u nama?
Moram da izgubim, pa tada da se zamislim.
Em D G Am G
Glavu da razbijem, pa onda tek da razmislim.
G
Koga da prevarim
C
198
da te zaboravim
G D
kad zrtve sve vec dobro znam
refren:
Em C D
Gde, kazi gde da pobegnem
H C
Koji trag da dotaknem
G D Em
Kada setim se da volim te.
Sto trazim usne nervozne
kao zrele jagode
kada setim se da volim te.
rif 3 x3
rif 2 x1
Satima, danima, iste me slike progone.
Hladan zid i tvoj glas jos bude stare nagone
Moram da izgubim, pa tada da se zamislim
Glavu da razbijem, pa onda tek da razmislim.
Koga da prevarim
da te zaboravim
kad zrtve sve vec dobro znam
Gde, kazi gde da pobegnem
Koji trag da dotaknem
Kada setim se da volim te.
Sto trazim usne nervozne
kao zrele jagode
kada setim se da volim te.
Solo: pratnja je kao za refren
Gde, kazi gde da pobegnem
Koji trag da dotaknem
Kada setim se da volim te.
Sto trazim usne nervozne
kao zrele jagode
kada setim se da volim te.
OSVAJAČI :: KRV I LED
Uvod: Am G F x4 Am x3 pa Am x3 pa Am-let ring
E|-----------------------------5-5~----------|
H|-----5\6-5-------5\6-5----8----------------|
G|-----------7--5----------------------------| Sve x2
D|-------------------------------------------|
A|-------------------------------------------|
E|-------------------------------------------|
Am G F
Mozes poci bilo gde
C G F
Mozes sve sto zelis ti
Da l' ce rec il' duse glas
Bilo sta da promeni
199
A kad odes sacuvaj
Nase tajne najvece
Srce tesko boluje
Ali znam prebolece
G Am (prelaz H A G)
Neka me bog ne ostavi
G Am
Kada dan sakrije zvezde
Am F C G
Krv i led, na usnama tvojim
Krv i led, a na meni topli tragovi
Bojim se, sve vise se bojim
Krv i led, jer to nisi ti
Uvod
A kad odes sacuvaj
Nase tajne najvece
Srce tesko boluje
Ali znam prebolece
Neka me bog ne ostavi
Kada dan sakrije zvezde
Krv i led, na usnama tvojim
Krv i led, a na meni topli tragovi
Bojim se, sve vise se bojim
Krv i led, jer to nisi ti
Solo: Am F C G x3 F G Am
Krv i led, na usnama tvojim
Krv i led, a na meni topli tragovi
Bojim se, sve vise se bojim
Krv i led, jer tooo-ooo x4
OSVAJAČI :: MINUT ĆUTANJA
Intro: Am x2, G, C x4 Am-let ring
Am G C Am G C
Nismo mogli mi biti zajedno
Dm C G F G Am
sad kad odlazis vec je svejedno
Prekasno je sad snove sanjati
dane buduce s drugim cekaj ti
Refren:
Am G Am G
Minut cutanja kad ne treba
C G Am G
ja vise nemam snage opet da se dam
F Am
jer ne ide i ne vredi
C G Am - let ring
sad novim putem idem probaj i ti
Ako pozelis sta je bilo pre
200
vetar secanja nek ti donese
Prekasno je sad snove sanjati
dane buduce s'drugim cekaj ti
Refren:
MODULACIJA(riffovi):
Hm A G A
Ne mozes da budes trag svakoj mojoj stopi
ja idem jer moram godine zivot topi
Vec vidim da nisam za nove bitke spreman
al idem jer moram vremena vise nemam
Refren:
OSVAJAČI :: MOŽDA NEBO ZNA
INTRO:
Am (C) G
E|-------------------------|-----8--7----------------|
B|----------5--8--5--------|-----------8--5--------5-|
G|-------5-----------5-----|-----------------7--5----|
D|----7-----------------7--|--5----------------------|
A|-------------------------|-------------------------|
E|-5-----------------------|-------------------------|
INTRO: tab x3 + F G
Razlaganje akorda kao iz gp5:
Am G Am F G
Oci mi tope se
Am G Am F G
dok vetar sa stola pesme mi brise
Am G C G Am
koji stih sad razum da krene
C G F
kada tu tebe nema vise.
Lice moje nebo je
i niz njega iste padaju kise
koji stih sad razum da krene
kada tu tebe nema vise.
C G Dm Am
Kome sad usne ljubis do zore
C G Dm
mozda to nebo zna
C G Dm Am
hladna noc sve dok misli mi gore
C G Am
dal' volim il' mrzim ja
Al negde jos cuvam sad
i oci zelene od gora vece
i ko ce sad nezno rame da mazi
niko to vise ne moze i nece.
201
OSVAJAČI :: NIKADA VIŠE S TOBOM
rif 1 rif 2
A F#m E
E|-----------------------| E|-----------------------|
H|-----------------------| H|-----------------------|
G|-6-7-4-6--7-6-4-6-6-6--| G|----/7-6-4--5-4--------|
D|-7-7-6-7--7-7-6-7-7-7--| D|-(2)------7-----7-5----|
A|-----------------------| A|-2---------------------|
E|-----------------------| E|-0---------------------|
rif 1 se svira sedam puta a onda osmi put rif 2
D rif 1
Ti si sve, sve sto ne volim
Dokle vise da ti govorim
Tvoj je korak moja fobija
D A G#m
Tvoja ljubav teska robija,o da
F#m E D
A sve to meni stvarno ne treba
Refren x2:
A
Nikada vise s tobom
Ostacu sam sa sobom
F#m
Ponovo liju kise
A E
Nikada s tobom vise
Intro
Moja sreca los je meni drug
Bacam karte, poslednji je krug
Prica stara, najpoznatija
Ti si moja losa partija, o da
A sve to meni stvarno ne treba
Refren x2:
OSVAJAČI :: PESMA ZA KRAJ
Intro:
F#m A E F#m
Ja imam osmeh sto sakriva sve
F#m A E F#m
U sebi tuzne price od pre
F#m A E F#m E
I samo jednu pesmu za kraj
E F#m A E F#m
a Ti, ti si mislila ljubav da znas
F#m A E F#m
Da je dovoljno telo da das
F#m A E F#m
Da bi dobila kartu za raj
PRED REFREN:
Hm F#m
202
I sad uzalud sve su neznosti
Hm
Kad ova noc je duga
A E
Duza od vecnosti
REFREN:
F#m A E F#m
Cekamo jutro a ponoc je tek
Hm E
Ne reci nista za to te molim
F#m A E F#m
Za ludu glavu ne postoji lek
Hm E F#m
Mogu da te volim ali ne da ostanem
Intro:
F#m A E F#m
Ja zivim san, novac, slava i jad
F#m A E F#m
I vec sutra napusticu grad
F#m A E F#m E
Jutrom skriven od ljudi i snen
E F#m A E F#m
A ti, ti ti si htela da zatvoris krug
F#m A E F#m
Neki stari da naplatis dug
F#m A E F#m
Da caroliju taknes na tren
PRED REFREN:
REFREN:2x
OSVAJAČI :: SAMO TI
Am F C G x8 + solo
Hm G Hm D A
Ispod vela od samoce ziveo sam dugo
Hm G Hm D A
I sve sto je srce htelo kostalo me skupo
G Em Hm G Adim Bdim
Znam sreca je bila tren, sad znam
Am F C G Am F C G
Samo ti si bila plen kad nista mi ne ostane
Am F C G F G
Svaki pad je bio let snovi sa tobom se ostvare
Am F C G Am F C G
Samo ti si bila plen kad nista mi ne ostane
Am F C G F G
Naspram tebe ceo svet ko platno bez boja postaje
Toliko sam puta hteo da odem od tebe
Al bez tebe nisam ceo lagao sam sebe
Znam sreca je bila tren, sad znam
Samo ti si bila plen kad nista mi ne ostane
203
Svaki pad je bio let snovi sa tobom se ostvare
Samo ti si bila plen kad nista mi ne ostane
Naspram tebe ceo svet ko platno bez boja postaje
OSVAJAČI :: ZLA NOC
Uvod:
E|----------------------------------------------------|
H|---------------------------------------6-5----------|
G|-----5---4-5---5---4-5--4-5-----5---4-5-----7-5-4---|
D|-7-7---7-----7---7-----7----7-7---7---------------5-|
A|-7-7------------------------------------------------|
E|----------------------------------------------------|
\----------------ovaj deo sest puta-----------------/
\----samo sto se na kraju jos dodaje sledece:-----/

E|----------------------------------------------------|
H|-6-5------------------------------------------------|
G|-----7-5-4-----5-4-----9-7--------------------------|
D|-----------7-5-----7-5-----5-7----------------------|
A|----------------------------------------------------|
E|----------------------------------------------------|
Am E
Krecem na put od ludila
Dm Am
I dobro znam te hladne plocnike
Ista nas noc sve privlaci
I stari plen i stare ratnike
F G
Ne cekas to da prodje
C G Am G
Da novo jutro dodje
F G
Ti zoves, pitas
E
Gde sam ja
C G
Zla(zla) noc(noc) kada zasvira
Am E
Gladne zveri ovog grada kad me ulove
Tvoj(tvoj) glas(glas) tad me nervira
Daj razumi kad ti kazem NE! NE! NEEEE!
NE ZOVI ME!
Uvod
Mesto i cas za paniku
Tezak je dah i teska muzika
Klinicki kraj vec nazirem
Maleno svetlo na dnu hodnika
A kada sve to prodje
Kad novo jutro dodje
Ti zoves, pitas
Gde sam ja
204
Zla(zla) noc(noc) kada zasvira
Gladne zveri ovog grada kad me ulove
Tvoj(tvoj) glas(glas) tad me nervira
Daj razumi kad ti kazem NE! NE! NEEEE!
NE ZOVI ME!
Brejk:
A|-------------------------------5-5-----7-7-5---5-----|
E|-5-7-7-5-7-7-7-5-7-5-7-7-0-5-7-----7-5-------7---7-7-|
\-----------ovaj deo se svira cetiri puta-----------/
\--------------pa onda sledeci prelaz-------------/
A|-2-0-2-3-4-5-|
A kada sve to prodje
Kad novo jutro dodje
Ti zoves, pitas
Gde sam ja
Zla(zla) noc(noc) kada zasvira
Gladne zveri ovog grada kad me ulove
Tvoj(tvoj) glas(glas) tad me nervira
Daj razumi kad ti kazem NE! NE!
Zla(zla) noc(noc) kada zasvira
Gladne zveri ovog grada kad me ulove
Tvoj(tvoj) glas(glas) tad me nervira
Daj razumi kad ti kazem NE! NE! NEEEE!
NE ZOVI MEEEEEEEEEE!
OSVAJAČI :: TI%A PREDAJA
UVOD x4: Dm x2 , B C
Dm B C
Mozes reci da nisam za nju
znam da ne mislis zlo, ooo
al' kad kazem da ostacu tu
ja sam spreman na to, oo.
Ovaj put nisam imao plan
nisam smeo to znam, da se zaljubim
i sad svaki je pogresan dan
igram igru sa njom, igram svestan da gubim.
Ref:
Dm B F C
Mozda sam i lud sto je trazim
vodim neki svoj rat sa ljudima
a kad padne noc, sve po starom
ja sam opet sam, ona s' drugima.
Mozes reci da znas sve od pre
svaka ljubav je pad, tiha predaja
ali sada je kasno za sve
ovaj put izbora nemam, idem do kraja.
ORUŽJEM PROTIV OTMIČARA :: MLADIĆU MOJ
205
E|----------X-X-X-X-X----------------------X-X-X-X-X-------------
H|----------X-X-X-X-X----------------------X-X-X-X-X-------------
G|-7-7-6-7--X-X-X-X-X-7-7-6-7-7-6--4-4-2-4-X-X-X-X-X-4-4-4-4-4-6-
D|-7-7-6-7--X-X-X-X-X-7-7-6-7-7-6--4-4-2-4-X-X-X-X-X-4-4-4-4-4-6-
A|-5-5-4-5--X-X-X-X-X-5-5-4-5-5-4--2-2-0-2-X-X-X-X-X-2-2-0-2-2-4-
E|----------X-X-X-X-X----------------------X-X-X-X-X-------------
E|-14-12-14--10-12--9-10---------
H|------------------------12-10~-
G|-------------------------------
D|-------------------------------
A|-------------------------------
E|-------------------------------
E|---10-12-12b14-12--10-12b14r12p10-----
H|-10-------------------------------12~-
G|--------------------------------------
D|--------------------------------------
A|--------------------------------------
E|--------------------------------------
E|---10-12-12b14-12--10-12b14r12p10-----
H|-10-------------------------------10~-
G|--------------------------------------
D|--------------------------------------
A|--------------------------------------
E|--------------------------------------
D
Zelim ti zabavan dan
Hm
Najuzbudljiviji san
D
Nikad da ne budes sam
G A
Druge da setas, meni da smetas
D
Zelim ti uspeh i moc
Hm
Najludji provod kroz noc
D
Ceo svet neka je tvoj
G
Druge da imas, naravno
A
Mene da nemas, nene, nene
D A Hm
Mladicu moj, problem je tvoj
G
Sto si mi tako sladak
D A Hm
Mladicu moj, problem je tvoj
G
Kako si mek i gladak
Mladicu moj, problem je tvoj
Luduju sve za tobom
Mladicu moj, problem je tvoj
Moram ti reci zbogom, zbogom, zbogooom
206
Intro
Zelim ti zabavan dan
Najuzbudljiviji san
Nikad da ne budes sam
Druge da setas, meni da smetis
Zelim ti uspeh i moc
Najludji provod kroz noc
Ceo svet neka je tvoj
Druge da imas, naravno
Mene da nemas, nene, nene
Mladicu moj, problem je tvoj
Sto si mi tako sladak
Mladicu moj, problem je tvoj
Kako si mek i gladak
Mladicu moj, problem je tvoj
Luduju sve za tobom
Mladicu moj, problem je tvoj
Moram ti reci zbogom, zbogom, zbogooom
TRULA KOALICIJA :: ALKO%OLIČARKA
Intro: Am, C, G, G, (razlagani akordi)
Solo:
|--------------------------------|--------------------------------------------|
|--------------------------------|--------------------------8/10-8-10-8-10-10~|
|--------4-5--4-5--7/9-7~--------|--------4-5--4-5--7/9--7~-------------------|
|-7~-5-7-----------------9-7-5~--|-7~-5-7-------------------------------------|
|--------------------------------|--------------------------------------------|
|--------------------------------|--------------------------------------------|

|--------------------------------|--------------------------------------------|
|--------------------------------|-8/10--8------8-----------------------------|
|-------4-5--4-5--7/9--7~--------|----------7/9---9\7~-5-4--------------------|
|----5-7-----------------9-7-5~--|-------------------------7-5~---5-7~~~~-----|
|--------------------------------|--------------------------------------------|
|--------------------------------|--------------------------------------------|
Am C G
Bese lepa kao bog, al je otisla do mog
G
Od pica i od droge
Sve je lepo imala, a sad je ruznija
I od babaroge
Oci su joj upale, usne su joj sprzene
Od viskija i sljive
Jetra joj je propala, zeludac ne oseca
Noge su joj krive
*LEAD*
A5 C5 G5
Samo dobra sljivica njena je drugarica
G5
Od uvece do jutra
Sve sto stavis joj na sto ona spremna je da to
207
Iz cuga proguta
Misevi su setali, zidovi su plesali
Rusila se soba
Svako jutro, svaki dan, to se stalno ponavlja
Sve dok ne stize do groba
*LEAD*
Jednom je proguta-la cetiri kile konjaka
i bilo joj je gore
U klozet je otisla, vise nije vadila
Glavu s WC-solje
Misevi su nestali, zidovi su prestali
Da plesu da se krecu
Flasu je ispustila, telo je dopustila
Da je strpaju u vrecu
VAN GOG% :: NEKO TE IMA
intro:
e7 C D
e -------------|-----------|-----------|
H -------3-----|-----------|-----------|
G -----0---0---|-----0-----|-----0-----|
D ---2-------2-|---2---2---|---4---4---|
A -------------|-3-------3-|-5-------5-|
E -0-----------|-----------|-----------|
Solo x2
E-------------------------|------------------------|
H-------------------------|------------------------|
G---7-7-9-----------------|--7-7-9-----------------|
D------------7-7-7-7-5----|----------7-7-7-7h8-5---|
A-0--------7------------7-|--------7-------------7-|
E-------------------------|------------------------|
Em C D
Hteo bi negde da te vidim
kao slucajno
u kom dzepu ovaj grad
te nocas sakrio
BRIDGE:
Sada ne mogu da zaspim..o..o..
nesto se dogodilo
poludeo sam sasvim
odkad mislim na tebe
sve se izmenilo
Solo x2
Kad sam s tobom kao da hodam
po vrelom asfaltu
i taman kad se noge naviknu
ti vise nisi tu
BRIDGE:
Sada ne mogu da......
CHORUS:x2
208
Neko te ima nocas
neko te voli
neko te ima
to nisam ja..(to nisam ja..a.a.a.a)
solo x2
Kad sam s tobom kao da padam
a nikad ne padnem
gde te sakrio ovaj grad
ne mogu da te pronadem
BRIDGE:
I ne mogu da.....
CHORUS:x2
Neko te ima nocas....
VAN GOG% :: KISELINA
Intro:
G5
E|--------------------------|--------------------------|
B|--------------------------|--------------------------|
G|--------------------------|--------------------------|
D|--------------------------|--------------------------|
A|--------------------------|--------------------1--0--|
E|--3--3----1-1-3--3----1-1-|--3--3----1-1-3--3--------|
A#5
------------------------|-----------------------|
------------------------|-----------------------|
------------------------|-----------------------|
------------------------|-----------------------|
------------------------|-------------3----1----|
--3--3----1--3--3----1--|--3--3--3--------------|
G5
Nisam kao oni
A#5
Kao oni sto zabavljaju
G5
Nisam kao oni
A#5
Kao oni sto otimaju
G5
Mislim da znam kako mami te glad
D#5
Padas i dizes se danima
F5 C5
Dok tuce srce tvoje sate kuca
G5
Nemas nikoga
Cuje se huk iz tela sve jaci
Pazi se gde si pazi ko si, s kim si
Za novac vodim samo jednom u bol
Pevam bluz za nas
BRIDGE:|A#5 |A5 G#5|G5 |
209
za novac.....
i sve za novac
CHORUS:
F5 C5 G5
Izmenicu ti zivot
F5 C5 G5
Izmesacu ti boje kiselinom
F5 C5 G5
Izmenicu ti zivot
F5 C5 G5
I samo da zavaram glad
SOLO:
Nisam kao oni
Kao oni sto zabavljaju
Nisam kao oni
Kao oni sto otimaju
Puteve sve ljudi su zli
Samo za sebe stvorili
Mislim da znam kako mami te mami neki bolji svet
Za novac, i sve za novac
REF:
OUTRO:
VAN GOG% :: KLATNO
H5 A5 G5 F#5
Mi sve smo probali i sve prodali za samo jedan dan
H5 A5 D5 F#5
I sva nasa nadanja su izbledela od cekanja
A----------0---------------2---0---|----------0---------------2-------|
E--2-2-0-2-----0-2---2-0-2---------|--2-2-0-2-----0-2---2-0-2-----0---|
H5 A5
Koliko puta sam zamisljao kako me oblak nekud odneo
G5 F#5
Negde daleko, u zaborav, vise mi nista ne znacis
H5 A5 D5 F#5
While my guitar gently weeeeeeps
D5
Klati se klatno, zlato je zlato (Sve, sve ove)
A5
Bleda je senka lepa i slepa (godine ti si)
E5
Spava li bajna, da li je tajna (tu i)
G5 A5
Kako se klatno klatilo zlatno (cekas da nadjem te)
D5
Klati se klatno, zlato je zlato (Znas da ljubav)
A5
Bleda je senka lepa i slepa (slepa je kazi)
E5
210
Spava li bajna, da li je tajna (mi)
G5 A5
Kako se klatno klatilo zlatno (kako da cuvam te)
I ovo sve, tako tezak je jedan pokusaj za samo jedan dan
While my guitar gently weeps
refren
VAN GOG% :: TANKA NIT
Uvod: Dm C G x3 F G
Dm
Rekla je "stani"
C G
Nisam znao kako
Dm
Teklo je vreme
C G
Ja sam mislio tek tako
Dm
Ona je rekla "mi"
C G
Nisam mislio na nas
F G
Rodjen da hodam da ne cujem glas

Ponovo ta pomalo sumnjiva
Sloboda nije cekala
Kao kamen kada padne u duboku vodu
I ja bih pao ali nemam gde
Njene tihe su niti mi zarobile telo
Tanke niti ljubavi
Tesko je bolu da zakuca na vrata
A meni jos teze da otvorim da
Ref:
Dm F G
Javi mi dal me jos uvek voli
Dm F G
Javi mi da li se dobro ljubi
Dm F G
Javi mi odgovor dugo cekam
F G
Moram biti jak da podnesem i to
Javi mi kako da idem dalje
Javi mi satisu tako gluvi
Javi mi odgovor dugo cekam
Moram biti jak da podnesem i to
Kad otplove snovi ljubavboli
Srce se zbuni I pocne da moli
Put srece kad daleko se predje
Do kraja se nikad ne obrise sam
Gloria...
211
ĐAVOLI - STOJIN NA KANTUNU
C
Stojin na kantunu, glava u balunu
G C
A, di si ti.
C
Stojin na kantunu, glava u balunu
G C
A, di si ti.
F
Mala, mala, mala
G C
Lipa moja mala, yeah ...
Ja zbog tebe sizin, toliko te volin
A, di si ti.
Ja zbog tebe sizin, toliko te volin
A, di si ti.
Mala, mala, mala
Lipa moja mala, yeah ...
A kad me druga trazi, ja san u garazi
A, di si ti.
A kad me druga trazi, ja san u garazi
A, di si ti.
Mala, mala, mala
Lipa moja mala, yeah ...

OK BEND - GDE TI JE SADA ON
Am
Gledam te nocas samu
G
Tuznu bez sminke
F E
I ne verujem ocima
Ni bleda senka nisi
Od one slatke klinke
Sto je uz mene blistala
Ref:
C G
Gde ti je sada tvoj princ iz bajke
Dm Am E
Zbog koga si me sutnula
Am
Gde ti je tvoj princ sada
C Dm G
Dok ti se zivot raspada
G
Gde ti je da te spase
Am
da ti se zvezde ne ugase
F
212
gde ti je sada on
G
da ti vrati tron
E Am
gde ti je sada on
Teku ti nocas suze
Mutne ko reka
A nekad ciste bile su
Al ne dira me to sad
Vjeruj mi ko coveka
Jer tvoje suze varaju
Ref:
TOŠE PROESKI 0 AKO ME POGLEDAŠ U OČI
Am F G
}x4
Am F G E
Am F G
Ako me pogledas u oci
Am F G E
o meni nista vise ti neces znati
Am F G
jer oci odati me nece
Am F G E
u moju odbranu ce ovaj put stati
Am F G
Slobodno gledaj mi usne
Am F G E
na njima ne pise bas nista vazno
Am F G
koliko puta slicne tebi
Am F G E
usnama ovim ja sam ljubio lazno
Dm G
a negledaj mi u dlanove
E Am
jer oni ce me znam odati
Dm G
za samo jedan poljubac tvoj
E Am
sve moje tajne odmah prodati
Dm G
i ne gledaj mi u cipele
E Am
jer recice ti o meni sve
Dm G
da sam bas jednu takvu kao ti
E Am
trazio sve ove godine
Am F G
Ako me pogledas u celo
Am F G E
nijednu boru tamo ti neces naci
Am F G
sakricu svoje pravo lice
Am F G E
213
glumicu da sam nocas od tebe jaci
Am F G
Slobodno gledaj mi usne
Am F G E
na njima ne pise bas nista vazno
Am F G
koliko puta slicne tebi
Am F G E
usnama ovim ja sam ljubio lazno
Dm G
a negledaj mi u dlanove
E Am
jer oni ce me znam odati
Dm G
za samo jedan poljubac tvoj
E Am
sve moje tajne odmah prodati
Dm G
i ne gledaj mi u cipele
E Am
jer recice ti o meni sve
Dm G
da sam bas jednu takvu kao ti
E Am
trazio sve ove godine.
TOŠE PROESKI :: VOLIM OSMIJE% TVOJ
D A
Krade mi te cesta
D
kradu mi te ljudi
A G
svako pomalo od osmjeha
D
tvog posudi
Iza svakog ugla
stalno neko vreba
da mi te ukrade
kada malo srece treba
Bm F#m
Niko nije kriv za to
Bm A
sto te volim toliko
Bm G
al' osmijeh tvoj je kriv da znas
A
sto me osvajas
Em A
Volim osmijeh tvoj bas dobro ti stoji
D Bm
jos ti bolje stoje poljupci moji
Em
ma kriv je meni svako
A D
kom smijes se ti, moja ljubavi

214
Volim osmijeh tvoj i nosi ga uvijek
smij se samo, dusu mi grij' zauvijek
i krivi su mi svi, i krivo mi je sve
kad sam bez tebe
Al' nije krivo more
niti sol u kosi
niti nebo koje boju
oka tvoga nosi
TOŠE PROESKI :: PRATIM TE
A#m C# F#
Baci pogled preko ramena kad podjes
A#m C# F#
kad po meni ko po suhom liscu prodjes
D#m F# G#
pa me makar laktom u grudi pogodi
D#m F# G#
makar grub tvoj dodir bio jos mi godi
Baci osmeh ispod uvojaka barem
da u tvoje misli bar na kratko stanem
ko u usporenom filmu se spotakni
preko mojih nogu ruku mi dotakni
Ref.
A#m D#m
Pratim te, sve u korak
D#m7 G#
svaku stopu poljubim
C# G# A#m
svaku suzu, svaki uzdah osjetim
D#m
tu sam da ti nadu vratim
F# G#
ako padnes da te uhvatim
Pratim te, i kad ne gledam
Po koraku te znam
Svaki drhtaj tvoga tijela osjecam
Tu sam da ti nadu vratim
Ako padnes da te uhvatim
Kad se ispod tvoga kisobrana stisnem
ja sam sretan iako na pola kisnem
pa me makar laktom u grudi pogodi
makar grub tvoj dodir bio jos mi godi
Ref.
Krv u glavu udari i ko struja ozivi
ovo tijelo bar na kratko ozdravi
Ref.
TOŠE PROESKI :: LEDENA
215
E
Po nasem starom zutom soliteru
C#m
price idu u istom smjeru
A H
svi govore, da si ledena
E
A kad te vide ti si uvijek sama
C#m
neces ni da pricas s nama
A H
bas si slatka, i vrlo dosadna
A H
P.ref: I ne znam ko je lud da se na tebe pali
A H E C#m A H
kad ti nesto u glavi fali
Ne zanosim se jako cesto
i dobro znam gdje mi je mjesto
a mjesto je, moje kraj tebe
a ja sam opet lud pa se na tebe palim
jer samo ja ti u glavi falim
E C#m A
Ref:Obucu se bijelo, cisto bijelo
H
providno uz tijelo
E C#m A
a tvoje crne oci, oci crne
H
gledace me vrelo
E C#m A
Ubracu dve ruze, majske ruze
H
da ti kosu zlate
E C#m A
pozvacu svirace da nas nocas
H
kroz grad prate
E C#m A
Ni ledena, ni dosadna
H
ti neces biti
E C#m A
do jutra ces, sa usana
H
ti mojih piti.

VIKTORIJA - RAT I MIR
Intro:
G D Em C Em D
e--------------------------------------------------
h-----------3-----3----------------------5----5----
g--0--2--4-----2-----0----------2--4--5----4-----2-
216
d-----------------------4--2-----------------------
a--------------------------------------------------
e--------------------------------------------------
G D Em Am D G
e------------------------------------
h----------3----5--7-5-3-------------
g-0--2--4----------------4--4s5-4-2-0
d------------------------------------
a------------------------------------
e------------------------------------
G D
jesam li ti ikad stvarno priznala
Em D
kako me je suza moja stipala
G D
ordenje za hrabrost da ti dodele
Em D
ne bi mogli ni da me razvesele
C D G Em C D Em
nocas je zemlja premala za nase korake
Am D G Em C D G D
i kad je ljubav prestala ne odricem se nje
Refren x2:
G D Em
gde da legnem gde da prenocim
C Em D
da na tebe ne mislim
G D Em
kome sada da se pomolim
C D G
da te vratim
G D
jesam li ti ikad prigovorila
Em D
koliko sam se za tu ljubav borila
G D
bio si moj nemir potreba i hir
Em D
al' si znala da je ljubav rat i mir
C D G Em C D Em
nocas je zemlja premala za nase korake
Am D G Em C D G D
i kad je ljubav prestala, ma ne odricem se nje
Refren x2:
VIKTORIJA :: KANADA
Gm Ed
Ja jos mislim na tebe
F B
zamisljam dodir
Ed
grlim tvoj jastuk
F
217
muce me snovi.
Gm Ed
Negde daleko
F B
da l' osecas isto
Ed
kad me pozelis
F
ti me pozovi.
Gm Ed
Svi vozovi kasne
F B
svi brodovi tonu
Ed
okrecem stalno
F
pogresan broj,
Gm Ed
Al' negde pred zoru
F B
kad podjem u krevet
Ed
pomislim da l' si
F
jos uvek moj.
Ed F
Pomislim da l' si
F
jos uvek mooj.
Gm
Severna Kanada,
B
Ulice Bagdada,
Ed F Gm (moze na basu E, F, F#)
putovanja bilo kud.
Gm
Da li da te pratim
B
ili da te shvatim
Ed F Gm
kao pricu nestvarnu.
VIKTORIJA :: DAJ NE PITAJ
Am F
ovih sam dana
Am G
mana nisam htela
F G
slucajno na ulici
Am E
tebe srela
ti kao i ja
krades bogu dane
znam imas neku
218
a zezas se sa strane
a ja
F Am
ne znas da sam sama
F Am
u tom svetu tisine
F Am
lazem te da imam nekog
G F G
nekog ko o meni brine
C G
daj ne pitaj
F G C
bez tebe dani su mi glupavi i prazni
C G
daj ne pitaj
F G Am Am
jer zivim bez tebe ovaj zivot kao po kazni
F G Am Am
jer zivim bez tebe ovaj zivot kao po kazni

SMAK - PRO#ESOR
C\H: x25xxx
Uvod x2:
E|----------------|----------------------------------------------|
B|----------------|----------------------------------------------|
G|--2--2~--2---7--|---7--------7-------------7--2~---2--2--------|
D|--2--2~--2---7--|-7---7--------5--------5-----2~---2--2--------|
A|--0--0~--0---0--|---------3-------3--2--------0~---0--0--------|
E|----------------|----------------------------------------3--0--|
A D
U nasem gradu zivi
C C/H A
Taj covek vecito mlad
A D
Znaju stari znaju mladi
C C/H A
O njemu pricacu sad
Taj profesor dane gubi
Vreme trosi na nas
On muziku strasno ljubi
Svira klavir i bas
A D
Hej, profesore
C C/H A
Mi znamo sta si ludo voleo pre
A D
Dzez, profesore
C C/H A
Pokazi kako se sviralo pre
Em G Am F
Taj profesor ljudi
G Am
Nema nikoga svog
219
Em G Am F
Samo muziku ljubi
G Am
Ona je za njega bog
Taj profesor ljudi
Cesto napusta cas
Em G Am F
Tad direktor ludi
G D G C F E
Psuje njega klavir i bas
Heej profesore..
Uvod
refren
SMAK :: DAIRE
Intro: 2x
E|----------------------------------|
B|----------------------------------|
G|-----------------------------5----|
D|--------2------------0-----4---4--|
A|------2----2---2---2---2-5--------|
E|---0---------0---3----------------|
----------------------------|
----------------------------|
----------------------------|
-------2--------2--4--2--0--|
-----2----2---2-2--4--2--0--|
--0---------0---------------|
Em G D7 Em G D7
Negde iz daleka, cuju se daire
mesecevom senkom dolaze cigani
A G F# H Part 3
negde iz dalekaaaaaa
Part 3
A-----0-2----------0-----2--2--
E---3-----3--2--3-----2--0--0--
Refren:
Em D C Part3
Izvire u oku sjaj,
da li je java il' san
daire dajte mi vi
navire pesma u meni
uvod
fenjeri se pale
vatra je u ljudima
orosene lale leze na grudima
fenjeri se paleee
part 3
refren
220
uvod
ako umrem sada kupite daire
svirajte mi tiho
ali ne, ne placite
ako umrem sadaaa
part 3
refren
SMAK :: LJUDI NIJE #ER
Intro:
deo1 deo 2
E-------------------2-------------------0-----
H-------------------3-------------------1-----
G-------------------2-------------------2-----
D----------------0--0-------------------2-----
A----0-2-3-3-2-----------0-2-3-3-2---0--0-----
E--3-----------3-------3-----------3----------
deo3
------------------
------------------
------------------
------------------
--0h3p0---0----2--
--------3---3--0--
Em (dio 1) D
Ljudi nije fer,covek zivi kao ker
Am G F# Em (dio 1) D
misli na sve,brani svoga tela greh
(dio 1) D
uvek placa drugom ceh
G Am Asus2
ludom glavom rusi zid
D Em
vrlo kratak ima vid
G D C Am D Em
ref:Sad je cas ,bezi od zla
G D C Am D Em
ja sam pas ti si kao ja
Intro x2
Svako nosi zig,vecno tece gorak med
ti si ko ja ,volis pesmu ,majski dan
Citas Balzakov roman
volis dobar modni film,
elegantan tvoj je stil
refren
Intro x2
Prva strofa ponovo
Ljudi nije fer da covek zivi kao ker
Misli na sve samo zivot nije laz
Nosi neku cudnu draz
Vino, ljubav, so i greh
221
Zivot to je plac i smeh
Refren
ORT%ODOX CELTS - GREEN ROSES
UVOD: G x4
STROFA x2: G x2 C x2 Am Em C D
REFREN x2: G C, Am D, Em C, Am D
At the crack of the dawn thunder and lightning crossed the way
The shadow of night waited to see the bright light of the day
Nobody saw his bitter tears through the dark veil of rain
The river of blood under his feet run wild again and again
Refren:
The green roses will grow
While green fields turn to red
Only memory remains
Of hero and his faith
The green roses will grow
While green fields turn to red
Only memory remains
Of hero and his faith
He just stood and he stared with a sword in his hand
Under the bridge of rainbow's gold he fought for his land
The black crow stole his destiny and flew from the cross
Flyin' high, goin' so far to take his soul away
Refren x2
PRATNJA: G C Am D Em C Am D x2
E|----------------|----------------|----------------|----7-----------|
H|--------8---8---|(8)-------------|------------8---|10------10--8---|
G|7---9-----------|----------------|----7---9-------|----------------|
D|----------------|----------------|----------------|----------------|
A|----------------|----------------|----------------|----------------|
E|----------------|----------------|----------------|----------------|
E|------------7---|----------------|------------7---|----------------|
H|10------10------|10--8-----------|10------10------|10--8-----------|
G|----------------|--------9---7---|----------------|--------9---7---|
D|----------------|----------------|----------------|----------------|
A|----------------|----------------|----------------|----------------|
E|----------------|----------------|----------------|----------------|
E|--------10------|12------10------|----------------|----------------|
H|12----------12--|----12------12--|10--12--10------|----------------|
G|----------------|----------------|------------12--|9-------9---7---|
D|----------------|----------------|----------------|----------------|
A|----------------|----------------|----------------|----------------|
E|----------------|----------------|----------------|----------------|
E|----------------|----------------|----------------|----7-----------|
H|--------8---8---|(8)-------------|------------8---|10------10--8---|
222
G|7---9-----------|----------------|----7---9-------|----------------|
D|----------------|----------------|----------------|----------------|
A|----------------|----------------|----------------|----------------|
E|----------------|----------------|----------------|----------------|
EVA BRAUN :: SASVIM OBIČAN DAN
Uvod: Dm x4
Dm
Igra krece, ja vec snalazim se
Dm7 Gm
Vrebam pogled, tvoj pogled vreba me
Gm
I brisem znoj sa dlanova
Gm7 A
Ludilo osvaja kao pre
Preko stakla gledam, motrim na znak
Samo sapat, necujan i lak
Jedna rec i tako blizu sam
A blizina razdvaja
Refren:
F
Kratak susret, osmeh mesto pozdrava
Dm
I ispod stola dodir tvoga kolena
F
Slika u tami, strah od novog budjenja
Dm
I pokret oka, prevara k'o navika
G
Laki drhtaj, naglo prekinut san
I jedan
F Dm
Sasvim obican dan
F Dm
Sasvim obican dan
F Dm
Sasvim obican dan
G# G
Ne brinem i ponavljam
Prelaz: Dm x4
Refren
Skok u mraku, padam i vec sam tu
Vicem u sebi, jos samo ovaj put
Trazim izlaz, beg iz zabluda
A tvoja ruka me poziva
Preko stakla gledam, motrim na znak
Samo sapat, necujan i lak
Jedna rec i tako blizu sam
A blizina razdvaja
Refren
G# G
223
Trazim sve sto treba da dam
G# G
Jedan naglo prekinut san
G# G
Ne brinem i ponavljam
Dm G Dm G Dm G D (po 2 akorda na 1 4-4tinski)
Sasvim Obican Dan.
ZDRAVKO ČOLIĆ - JEDINA
Am
Ostani da ti kazem nesto jos,
C
Ostani ovaj dan je bio los,
G
Ostani da ne budem vise sam
Am
Jer je tuga sve sto znam.
Pricaj mi, makar bajke bile to,
Pricaj mi, ti ces oterati zlo,
Pricaj mi, nek' me na cas
Tvoje ruke i tvoj glas.
Refren:
G C
Ti si jedina od svih,
G Dm
Koja dodje kada treba,
Am F
Ti si sunce moga neba,
E7 G7
Tebi mogu reci sve.
Ti si jedina od svih,
Koja tajne moje cuva,
Ti si moja ljubav prva,
Samnom mozes bilo gde.
Refren:
Ostani, ti si ista ali znas,
Ostani, da mi malo snage das,
Pricaj mi, nek' me umire na cas,
Tvoje ruke i tvoj glas.
ZDRAVKO ČOLIĆ - JEDNA ZA DRUGOM
Am E7
Jedna za drugom
G Am
Takav zivot je moj
C G
Nisam ljubio stvarno
F Am
Vazan bio je broj.
Jedna za drugom
224
Svakoj bio sam drag
Al duboko u nama
To ne ostavlja trag.
Dm Am
I u stvari srce spava
Em Dm7
Sve do casa kad se javi prava
F G Am
S tobom je nesto drugo
F G Am
Ti si za mene par
F G Am
S tobom to traje dugo
C G
Ja sam probao sve
E7 Am
Ja sam prosao svud
F G Am
S tobom, s tobom je prava stvar
Jedna za drugom
Vecno s cveta na cvet
Ti me vracas na zemlju
Ti mi prekidas let.
ZDRAVKO ČOLIĆ - STO PUTA

Gm F Gm F
Na izgled fantasticna, bombasticna
Gm F Gm F
a ustvari klasicna, romanticna
Gm F Gm F
upali svetlo klik, kaze da je sram
Gm F Gm F
sve sto je meni sik, nju je toga blam
Ima svoja pravila, bravu mi je stavila
svuda bi je ljubio, vrijeme bi izgubio
uhvatim je na blef, kaze da sam lud
nije mi cejf, ako, ako nije svud
Gm F
cudna ti je moja draga
Gm D
oce nece samo vaga, hej
Gm F
Moj Dragane, kod mene moze
Gm F
moj Dragane, do gole koze
F B Cm D
drago mi je sto s' tobom mogu sve
Eb D
zato sto puta bolja si od nje
Moj Dragane, za djidji-midji
moj Dragane, samo mi pridji
225
drago mi je sto s tobom mogu sve
zato sto puta bolja si od nje
ŽELJKO SAMARDŽIĆ:: MESEC U VODI
Em C D Em
kao mesec u vodi tako ja u tvojim ocima
C D Em
cim novo jutro se rodi da me nije bilo nikada
Em C D Em
i ne znam kuda to vodi i gde se ja to ukalapam
C D Em
u fazi tvog zivota ja sam uvek bio suvisan
ref:
Em C D Em
dok svako bira svoju stranu postelje sve dublji je jaz
C D Em
jos dvoje bi u sredini moglo da se budi poreed nas
dok svako sebi kafu sprema dusama djavo se raduje
gde ponos dodje po svoje tu ljubav kofere vec pakuje
kao pero na vetru tako ja u tvojum snovima
ljubav i bol u duetu
gutljaj vina,gutljaj otrova...
I ne znam kada ni zasto smo u naviku zalutali
zato i nijvise bole
reci koje smo precutali...
ref.
ŽELJKO SAMARDŽIĆ :: NE DAJ DA TE RADE
Fm Db Ab Eb
Ne ne ne daj da te rade
Fm Db Ab Eb
biraj najbolje komade
Fm Bmb
poljubi ih pa ih baci
Db Fm
igraj se sa svima
Db Ab Eb
sto su tebi sad ti radi njima
Ne ne nedaj da te rade
za ljubav uvek ima nade
nemoj da te bije maler za malerom
vrati mala vrati istom merom
Fm
Zaljubila se mala
Bbm Fm
bila zavedena
Bbm Fm
226
htela da mu bude verna
Eb Fm
da mu bude zena
ni pomislila nije
da on ima mane
da on voli pice, zene,
drustvo i kafane
Cm Fm
Stani mala nemoj da si luda
Cm Eb
losi momci nalaze se svuda
ref.
227
STAROGRADSKE
BEZ TEBE JE GORKO VINO
A Gm A G A
Sad kad nisi sa mnom sporo teku sati
Dm Gm A
Cini mi se kazalj-ke ce sta-ti
Dm A7 Gm A7 Dm -D7
Potajno se pi-tam sta mi zivot vre-di
Gm A
Svake noci sam za stolom sedim
Ref:
Dm A7
Bez tebe je gorko vino
Dm A7 Dm
Nece tugu da mi bla-zi
Gm Dm
Ja ne mo-gu da se smi-rim
E7 A
Srce samo tebe trazi
Sad kad nisi sa mnom k'o da ne postojim
Samo ceznem za usnama tvojim
Kako da te nadjem da si pored mene
Da ozive stare uspomene
Sad kad nisi sa mnom vidim sta si za me
Trebam tvoje ruke, tvoje rame
Ali tebe nema, nikad neces doci
Imam samo ove duge noci
TAMBURALO MOMCE UZ TAMBURU
E E7 Am E
Tamburalo momce uz tamburu
E E7 Am E
Tambura mu od suhoga zlata
Am E7Am DmAm E Am EAmE
Tanke zice kose djevojacke
E Am E E7 AmE Dm E
A terzijan pero sokolovo
Gledala ga Ajka sa cardaka
Vidi, majko, lijepa junaka
Da mi ga je u dvoru vidjeti
Na njegovom krilu sevdisati
228
Karanfil bi pod njega sterala
A pod glavu rumenu ruzicu
Nek mirise, nek mirise
Nek me cesto budi, cesto budi
A jos cesce ljubi
KICO SLABINAC - ZBOG JEDNE DIVNE CRNE ZENE
Uvod: G, D, G, D, G, D, G, C, G, G, D, G, C, G, D, G
G C
Ja gledao sam sunce na istoku
G D G
Kako se budi
c
I gledao sam oblake i jutro
G D G
U tisucu boja
C D
Sklapao oci od bola
G D G
I skrivao suze
C D
A ona je ostala tamo
G C G
Daleko u noci
REF.
G D G C G D G
Zbog jedne divne crne zene
G D G C G D G
Zbog njene divne crne kose
G D
Zbog jednog pogleda tuznog u noci
C
Zbog obecanja, da ce mi doci
C D G
Tuzan i sam cekam je ja
Daleko me nosila ptica
Srebrnih krila
U zemlju u kojoj je nekad
I ona bila.
Toliko sam zelio srecu
I ljubav bez kraja
Al' zivot me odnio dalje
Daleko od nje
229
TI SI ZENA MOG ZIVOTA
C F G7 C
U malenoj krcmi sedim sam za stolom
F G C
U mislima kao da sam s' tobom
F G7
Kao da me grli ruka tvoja
G7 C
Ali to je samo zelja moja
Ref:
F
Ti si zena mog zivota
F C
Nasu pesmu nocas svira-ju
C G7
A ja krijem svoje su-ze
G7 C
Ja ih krijem one pada-ju
U ruci mi stara pozutela slika
Na kojoj si zapisala ti
Da se vecno secam tvoga lika
Dal' se nocas mene secas ti
U malenoj krcmi jos sedim za stolom
Oko mene srecni su svi
Ostao sam sam sa svojim bolom
Ja sa bolom a sa kim si ti
230
ZELENE OCI
C
Volela sam oci zelene
F G
Volela sam oci never-ne
G G7 C -A7
Volela ih ludo vole-la
A7 C G7 C
A sada sam bez njih osta-la
Ref:
C G7 C
Zelene oci bile su moje
C7 F G7 C
Te divne oci k'o sunca sjaj
G F G7 C
Ni sama ne znam zasto ih vo-lim
G7 C G7 C
Kad mojoj sreci dosa-o je kraj
Ljubila sam oci zelene
Ljubila sam oci never-ne
Ljubila ih ludo ljubi-la
A sada sam bez njih osta-la
Sad je mome srcu najteze
Srce moje bez njih ne moze
Srce voli oci zelene
Iako su bile neverne
CIGANKA SAM MALA
Cm G7 Cm
Ciganka sam mala oci moje gore
Cm G G# C7
Igram pevam plesem celu noc do zore
Fm Cm
Ja sam mala garava
G7 Cm C7
Crna tvoja Cigan-ka
Kad ti oci gledam
Zaboravim tugu
Srce iste jedno
Razum hoce drugo
Da sam tvoje oci
231
Ja ranije sreo
Nasao bih srecu
Za svoj zivot ceo
MIKI JEVREMOVIC - PIJEM
Uvod: Dm A7 Gm A7 Dm A7 Dm A7 Dm
Dm Gm (Am...)
Sam sam sa casom i tugom,
C7 F A7
Staro smo drustvo mi, zar ne?
Dm Gm
Pricam sa vinom kao sa drugom,
A7 Dm A7 Dm A7 Dm
Slusa me mada vec zna sve....
Dm Gm
Pijem al' ne znam cemu sve to
C7 F
I pijan ja je ipak volim
A7 Dm Gm
Pijem jer jedno davno leto
A7 Dm
Samo uz vino mogu da prebolim
Dm Gm
Za mene niko sad ne mari
C7 F
Al' nikog necu ja da molim
A7 Dm Gm
Pijem, jer ima mnogo stvari
A7 Dm
koje ja samo pijan mogu da prebolim

MIROSLAV ILIC - ZOVES ME NA VINO
Em
Zoves me na vino zoves me na lom
Am Em C D Em
Zar ne vidis druze bol na licu mom
G
Daj mi malo hleba daj mi malo soli
G D7 G
I najdrazu zenu ko-ju srce voli
G
Daj mi malo hleba daj mi malo soli
232
Am D H7 Em
I najdrazu zenu ko-ju srce voli
Zoves me da pevam zoves me da pijem
Zar ne vidis druze kakvu tugu krijem
Nema takvog vina, nema takvih reci
Nista moju tugu nece da izleci
HALID BESLIC :: BEOGRADJANKA
Gm F Gm
Da sam te sreo ranije malo
B F7 B
ne bi mi srce za drugu znalo
Cm Gm
da nisam imo jos ljubav neku
F Gm
ne bi mi suze tekle niz reku
Ref:
Gm F Gm
Samo za tebe Beogradjanko mala
Gm B F7 B
samo za tebe sto nikad nisi znala
Gm Es F7 Gm
samo za tebe i ljubav tvoju zanosnu
F Gm
vracam se majci u Bosnu
Da li je Dunav ili je Sava
nikom ne reci devojko mala
sakrij u srcu bar suzu neku
jer sve ce otic niz Dunav reku
Da li si tuzna u ove dane
da li si placna kad zora svane
da li te misli jos meni zovu
ili si nasla ti reku novu
ZORAN KALEZIĆ - SVI PJEVALJSKI TAMBURASI
G D G
Ej borova sumo mlada, kraj Pjevalja starog grada
D G D
reci meni, proljeca ti, ko mi dragu nocas prati
G D C G
233
Svi pjevaljski tamburasi svirajte mi pjesme tuzne
D C G Am D G
drugi ljubi usne njene, sto ostase meni duzne
Ej Breznice, rjeko mala, za nasu si ljubav znala
Reci meni, izvora ti, zar se nece mojom zvati
Ej pjevaljska milen basto, tugovati imas zasto
Reci meni, moj djevcicu, dal jos jednom sa njom bicu
ZDRAVKO COLIC :: AO NONO BIJELA
Ritam: un-ca
Gm Cm Gm
zelena je trava, moma na njoj spava
D Gm
ao nono bjela
Gm Cm Gm
vihar vjetar pirnu u suknju joj dirnu
D Gm
a o nono bjela
Cm F Bb D Gm G7
suknica se siri a nozica viri
Cm F Bb D Gm G7
suknjica se siri, a nozica viri
Cm
a o nono bjela, voda te odnjela
Gm Cm Gm
voda te odnjela
Cm
A o nono bjela, voda te odnjela
Eb Cm A D
pa meni, meni donjela
TOZOVAC - PRAZNA CASA NA MOM STOLU
C
Aaaaaaaaj
C
kafana je puna sveta
C
Svako se za pesmu sprema
C
Kako zelim da si sa mnom
C G7 C prelaz C: un-ca ca ca ca
Ali tebe sa mnom ne-ma
234
F G
Prazna casa na mom stolu
G C
Iz te case ti si pila
C A7 Dm
Ako je casa ispi-jena
G C G7 C
Nek' bude casa raz-bije-na
Aaaaaaaaaaj
moje oci tebe traze
Dok u casi vino drema
Muzika mi pesme svira
A ja patim sto te nema
ZDRAVKO COLIC :: PJEVAM DANJU PJEVAM NOCU
Bm F#7 Bm Em
Pjevam danju pjevam nocu
Bm F#7 Em
pjevam sele sto god hocu
F#7 Bm
i sto hocu to i mogu
Em A D F#7
samo jedno jos ne mogu
Bm F#7
Da zapjevam glasovito
Bm
glasovito silovito
F#7
da te dignem sa zemljice
Em A7 D F#7
da te metnem medj' zvjezdice
Bm B7 Em
Kad si zvjezda sele moja
Bm
da si medju zvjezdicama
F#7
medju svojim sele moja
Bm
medju svojim sestricama.
ZDRAVKO COLIC :: MADJARICA
Intro:
235
e-----------------------------
h--5--------------------------
g---5-------------5-----------
d----7-6--6-7----7-7-6--6-7---
a------------7--7----------7--
e-----------------------------
Am E
jos se nisam ni brijao
C G
zivot mi je vec prijao, prijao
Am E
kad sam krenuo amidzi
Dm Am E Am Dm C H Am
starim drumom ka i-lidzi
|Am |E |Am |Dm C H Am|
sreca il cudo, sta li je
da je bogdo mi ranije, ranije
mase, zove me curica
kaze da je madjarica
ref:
Am E Am E
hajde, hajde
Am E Am E
re-ci, ziva bila, odkud ovde
Am E Am E Am E Am E
hajde bo-na, slatka k'o bombona
nisam ni ja od kamena
kad se takla mog ramena, ramena
pitam mala u cem' je stvar
kaze trazi put za mostar
ne znam dal' se zaljubila
kao divlja me ljubila, ljubila
kad sam krenuo amidzi
starim drumom ka ilidzi
hajde, hajde,
reci, ziva bila, odkud ovde
hajde bona, slatka k'o bombona
hajde bona, slatka k'o bombona
hajde, hajde,
reci, ziva bila, odkud ovde
hajde bona, slatka k'o bombona
236
ZDRAVKO COLIC :: GLAVO LUDA
Am Dm
Glavo luda, sve se mjenja,
Am Dm
Sto ce nama izmirenja,
Am Dm
Ako nije srce vruce
Am E
Sve je nemoguce.
I tko ne zeli da se mjenja,
Vole ga iz sazaljenja,
Pamti to za ubuduce,
Jer sad je nemoguce.
Am C Am
Promjenila riba more,
Am C Am
Rob cuvara, zvjerka gore,
Am
Kozu zmija, duga boje,
Dm Am
A ti samo tjeras svoje.
Dm
I zavede me u bespuce,
Dm
Zivjeti je nemoguce,
E
Nemoguce znaj.
ZDRAVKO COLIC :: CINI TI SE GRMI
G Am G Am
Kao prvo, da kucnem u drvo.
G Am G Am
Kao drugo, trajalo je dugo.
G Am G Am
Kao trece, bolje biti nece.
G Am G Am G
Odlazis, na srecu prezivjet' cu.
REF:
G Am G Am
Cini ti se grmi, cini ti se sijeva,
G Am G Am
Izgore planeta, bit' ce propast svijeta.
G Am G Am
Pice za mladice, banku za igranku,
237
G Am G Am
A svijet nek' propadne, nije neka steta...
Kao cetvrto, mi srce ne lomi,
Jer k'o peto, ne bi ni ja tebi.
Nije to do tebe, ni do mene,
To je losa godina za zaljubljene.
ZDRAVKO COLIC :: CIJA JE ONO ZVIJEZDA
A D A D
Cija je ono zvijezda
A D E
ljepsa nego Danica
A D E
ono je moja zvijezda
E A C#7
sto mi, sto mi lezi kraj srca.
F#m F#m E B
F#m F#m C#7 X2
F#m E B
Ja cekam mrak,mjesecinu
F#m E B
ja cekam finu nocnu paucinu
F#m E B
ja poznam korake ri-pa-ra-pa-ra
F#m E B
kad cujem cipele cinge-cange-cang
F#m C#
odlazis i dolazis ko da ne vidis
F#m E C#
e_______ee_e________ee_e________
Ja poznam korake ri-pa-ra-pa-ra
kad cujem cipele cinge-cange-cang
ja poznam korake ri-pa-ra-pa-ra
kad cujem cipele cinge-cange-cang
Ti gasis sve sijalice
i palis samo zvijezde smijalice
a kad se upale ri-pa-ra-pa-ra
kao da zazvone cinge-cange-cang
Sve su na nebu samo jedna ne
F#m E D
e___,evo je kraj mene...
A D A D
Cija je ono zvijezda
238
A D E
ljepsa nego Danica
A D E
ono je moja zvijezda
E A C#
sto mi, sto mi lezi kraj srca.
TOZOVAC :: TI SI ME CEKALA
C G7 C
Oprosti sto sam tvoju ljubav krao,
Dm A7 Dm
Oprosti sto ti ljubav nisam dao,
G7
Jer ti si samo pravu ljubav htela,
F C G G7 C
Jer si me voljela.
G7
A ja sam negde rujno vino pio,
F
A ja sam negde s drugom srecan bio,
C Dm G C
A ti, a ti,ti si me cekala.
Bila si zena koja zna da voli,
I kada place i kad srce boli,
Bila si zena koja zna da ceka,
Voljenog coveka.
Na prosle dane uspomena bledi,
Mozda se kajem sta to sada vredi,
Neka me boli tvoja suza vrela,
Jer si me voljela.
TOMA ZDRAVKOVIC :: ZA LJILJANU
Dm prelaz: D
Ne kosite rosnu travu
Gm
ne lomite mladu granu
C7
ostavite cvetna polja
F
ostavite cvetna polja
C F
nek' cvetaju za Ljiljanu,
C
239
ostavite cvetna polja,
F
ostavite cvetna polja
A7 Dm
nek' cvetaju za Ljiljanu.
prelaz: C
R E F R E N:
Bb D Gm
Ljubavi su mnoge bile
C7 F
kao vatra, mladost planu
Gm Dm
sve sto osta, od zivota
C C7 F prelaz: D
ja bih dao za Ljiljanu,
Gm Dm
sve sto osta, od zivota
C A7 Dm
ja bih dao za Ljiljanu.
Ne pevajte pesme njene | Ostvaricu snove svoje
ne dirajte staru ranu, | kada hladne kise stanu
pet godina ja negujem | kad s'prolecem ozelene
pet godina ja jos cuvam | cvetna polja za Ljiljanu,
jednu ruzu za Ljiljanu, | cvetna polja za Ljiljanu,
pet godina ja jos cuvam | kad s'prolecem ozelene
pet godina ja negujem | cvetna polja za Ljiljanu
jednu ruzu za Ljiljanu. | cvetna polja za Ljiljanu.
|
TOMA ZDRAVKOVIC :: SANJA
uvod:Am|Am|E|E|E|E|Am|A7|
Dm|Dm|F|F|E|E|Am|Am|
RITAM un-ca un-ca
Strofa:
C G C
Kako dani brzo prolaze,
C A7 Dm
Uspomene meni dolaze.
F Dm E
U mom srcu uvek ostace,
E Am |Am|G|- po jedan udarac
Jedna Sanja jedno prolece.
U kafani sedim do zore,
240
pa mi casa ni ne pomaze.
U mom srcu uvek ostace,
Jedna Sanja jedno prolece,
Refren:
C
Secas li se Sanja,
G C
da li mozes da zaboravis.
Dm
Pozelis li Sanja,
E Am |Am|G|- po jedan udarac
bar ponekad da me zagrlis.
Prolazim kroz nase parkove,
gledam zaljubljene parove.
I osetim opet radost svu,
kad je Sanja nekad bila tu.
Odlazim pod njene prozore,
i pozelim da je dozovem,
i osetim opet radost svu,
kad je Sanja nekad bila tu.
***VERZIJA 2***
F C7 F
Kako dani brzo prolaze,
D7 Gm
uspomene meni dolaze.
Bb A7
U mom srcu uvek ostace, prelaz: Dm C
A7 Dm
jedna Sanja jedno prolece.
U kafani sedim do zore,
pa mi casa ni ne pomaze.
U mom srcu uvek ostace,
jedna Sanja, jedno prolece.
prelaz: Dm -> C
R E F R E N:
F
Secas li se Sanja,
C (Bb*) F
da li mozes da zaboravis. prelaz: D7
Gm
Pozelis li Sanja
A7 Dm
bar ponekad da me zagrlis.
241
Prolazim kroz nase parkove,
gledam zaljubljene parove.
I osetim opet radost tu,
kad je Sanja nekad bila tu.
Odlazim pod njene prozore,
i pozelim da je dozovem,
I osetim opet radost tu,
kad je Sanja nekad bila tu.
TOMA ZDRAVKOVIC :: KAFANA JE MOJA SUDBINA
Em H7 Em
Da li si mi verovala zeno jedina
Em D G
Da li si mi verovala , dal' si prastala
C D G
Kad sam kuci dolazio mrtav umoran,
Am D G
Da li si mi verovala da sam bio sam,
H7 Em
Da sam bio sam
Prelaz: D - naglaseno
Ref.
C D G
Kafana je moja sudbina,
C D G E7
Ona me je sebi uzela,
Am Em
Kafana je moja istina,
H7 Em
Zeno jedina
Lutao sam godinama srecu trazio,
Lutao sam godinama, dok sam svatio,
Da na ovom belom svetu nema milosti,
Da bez tebe, duso moja, nema radosti
Nema radosti
Ref.
Mozes li mi oprostiti zeno jedina,
Mozes li mi oprostiti sto si patila
Sto te suza na jastuku suza jutrom budila
Sto te nocu mesto mene tama grlila
Zeno jedina
***VERZIJA 2***
242
Uvod:
E-----------------------------------------------------------------
---
H---7-7--7-7--5-3-5---8-8--8-10-12-13-12-
10h12-----------------------
G-----------------------------------------------------------------
---
D-----------------------------------------------------------------
---
A-----------------------------------------------------------------
---
E-----------------------------------------------------------------
---
E-----------------------------------------------------------------
---
H---12-12--12-13/15-15-13-13-13-13-11-9-11-9-7-9-7-
5-----------------
G-----------------------------------------------------------------
---
D-----------------------------------------------------------------
---
A-----------------------------------------------------------------
---
E-----------------------------------------------------------------
---
Strofa:
Am G Am
Da li si mi verovala, zeno jedina,
Am G C
Da li si mi verovala dal'si prastala.
Am F G C
Kad sam tebi dolazio mrtav umoran.
Dm E Am E Am Am,G
da li si mi verovala da sam bio sam, da sam bio sam
Refren:
F G C
Kafana je moja sudbina
F G C A7
ona me je tebi uzela
Dm Am
Kafana je moja istina
E Am Am,G
zeno jedina...
Lutao sam godinama srecu trazio.
Lutao sam godinama, dok sam shvatio.
Da na ovom belom svetu, nema milosti.
243
Da bez tebe duso moja, nema radosti,
nema radosti.
Mozes li mi oprostiti, zeno jedina.
Mozes li mi oprostiti, sto si patila.
Sto te suza na jastuku jutrom budila.
Sto te tama mesto mene, nocu grlila,
zeno jedina.
TOMA ZDRAVKOVIC :: JELENA
Uvod: Dm C Cm Dm Asus4 2x
Dm C Dm
Samo su moje ulice puste
F C D
bljestava svetlost mokrih trotoara
Gm D# Dm
a mene proganja jedna cudna zena |
C Am Dm | 2x
jedna Jelena koje vise nema. |
Ref: 2x
C Dm C
O gde si Jelena da mi srce smiris
A# C F
da u ovoj noci malo dusom danem
A# C D
neko prokletstvo sudbina sta li je
Gm D# Dm
moram da lutam ne mogu da stanem.
Padaju kise nad mojim gradom
koracam ulicom mokrih trotoara
i jos me proganja jedna cudna zena
jedna Jelena koje vise nema.
Ref: 2x
TOMA ZDRAVKOVIC :: HEJ BRANKA
Am G Am
Pamtis li ono leto,
G Am
Pamtis li zvezdane noci,
Am G Am
Kad si mi tiho rekla
G Am
244
Bez tebe necu moci
Ref.
Am
Hej, Branka, Branka, Branka
G7 C A7
Reci mi Branka,
Dm G F G Am
Ko je je kriv zbog naseg rastanka
Pamtis li onu jesen
Pamtis li dane i noci
Kad si mi tiho rekla
Bez tebe necu moci
Ref.
Pamtis li onu zimu
Pamtis li bele noci
Kad si mi tiho rekla
bez tebe necu moci
TOMA ZDRAVKOVIC :: DAL' JE MOGUCE
Am
Mislio sam da na svetu
E7 Am
jedina si ti
Am C
verovao u sve lazi
A7 Dm
sto si laga-la
E
al te srce i sad trazi
A7 Dm
zeno prokle- ta
F G
sta da cinim gde da lutam
E7 Am
ne znam ni ja sam
Am
Dal je moguce
Am
da si me zaboravila
G
dal je moguce
G
da si drugog poljubila
F
245
dal je moguce
Dm E
da si nesta-la.
STOJNIC DRAGAN :: JEDAN COVEK I JEDNA ZENA
UVOD:
|Bb F7 |F Bb | x2
Bb
Veceras, dok slusamo stare ploce
F
i neke davne kise opet liju,
Eb Bb
veceras, na dan naseg vencanja,
F Bb
tiho me pitas, da l' pamtim jos Veneciju.
Veceras, uz pesmu i staro vino,
tvoje me oci miluju i griju,
veceras, na dan naseg vencanja,
sta mislis mila, da l' pamtim jos Veneciju.
[Bb] F
Jedan covek i jedna zena
Bb
jedna ljubav za sva vremena,
F
dani idu , zivot se brise,
Bb
ja tebe cuvam, volim sve vise.
Jedan covek i jedna zena,
dva su tela a jedna sena,
moja sreca je sreca njena,
jedan covek i jedna zena.
Veceras, dok gledamo stare slike,
i tvoje oci neku tugu kriju,
veceras, na dan naseg vencanja,
zar mogu ikad, da zaboravim Veneciju.
MARINKO ROKVIC :: TI ZA LJUBAV NISI RODJENA
Am C
Koliko ti malo treba da pokazes svakom ko si
G Am
ko od tebe ljubav isprosi
246
Am C
Koliko ti malo treba da pogazis ono sveto
G Am
neka ti je sveto prokleto
prelaz: C
R E F R E N:
C Dm
Ti za ljubav nisi rodjena
G Am
pogresnom si zvjezdom vodjena
Am
i zato ti nije dato da na ruci nosis zlato
G Am
ni moje ni boljeg od mene.
Koliko ti malo treba da ostvaris
svoje snove oteras mi stare drugove
Koliko ti malo treba rekli su mi
davno mnogi da se spasim nisu pomogli
KEMAL MONTENO :: NEKAKO S PROLJECA
Intro:
Em G D Dsus4 D Dsus2 D
Em G D Dsus4 D Dsus2 D (pauza)

nekako s prolje[Em]ca [G]uvijek meni dolu[D]ta [D]
neka ceznja [Em]tamna [G]tiha mudrost [D]davna [D]
spustam ja [G]stare kofe[D]re na pe[G]rone sudbi[D]ne
to je miris [G]zrelih godi[D]na moj [Em]kaput
bas je [G]tezak [A]najdra[D]za
nekako s proljeca ja se sjetim starih drugova
probude se u meni svi derneci pijani
pa nosim ja stare cipele one znaju moje ulice
to je boja crno-ponocna moji koraci bas su teski najdraza
i opet [A]taj osjecaj samoce
kad nece [D]nikog mene krene i hoce
i opet [A]mrakom svoje pjesme bojim
pijan od [D]zelje za usnama tvojim

sav sam ti od ludi[Em]la
[A]nekako s prolje[D]ca
nekako s proljeca sjeti mene nepravda
na pobjede poraze i sve lazne obzire
napravim racun prastanja popijem pusta mastanja
247
to je ukus lijepog kajanja
moji kapci bas su teski najdraza
nekako s proljeca noc mi oci otvara
nemam san da uhvatim nema dana da ne izludim
a hocu da te vodim ja tragom sunca jugom maslina
to je dodir tvojih bedara
moja dusa bas te voli najdraza
i opet taj...
ZDRAVKO COLIC :: SINOC NISI BILA TU
Cm
Sinoc nisi bila tu,
Gm
da mi malo snage das,
Cm
da mi pruzis ruke te,
Gm
da na njima umrem ja..
G# Gm
O ne, danas je kasno,
Fm
ti idi svojim putem,
G
a ja cu ostat sam.
Hladne ruke, hladan san,
hladne usne svaki dan,
samo to si dala ti,
ti zbog koje zivjeh ja.
O, ne, ne mogu vise,
ne mogu da te volim,
odlazi sad.
D# Gm
Nosi, nosi, nosi sve sto si mi dala,
G# G7
ono malo toplih dana,
Fm G G# B
one uvele ruze nek ti nocas ljubav pruze.
Info: B=Bb
KRUNOSLAV KICO SLABINAC :: ZBOG JEDNE DIVNE CRNE ZENE
A E A D A
248
Zbog jedne divne crne zene
A E A D A
zbog njene divne crne kose
A E
zbog jednog osmeha tuznog u noci
D
zbog obecanja da ce mi doci
A E A D A
tuzan i sam cekam je ja.
A D A E A
Ja gledao sam sunce na istoku kako se budi
A D A
i gledao oblak i jutro u hiljadu boja
D E A
sklapao oci od bola i skrivao suze
D E A
a ona je otisla tamo daleko od mene.
Daleko me nosila ptica srebrnih krila
u zemlju u kojoj je nekad i ona bila
toliko sam zeleo srecu i ljubav bez kraja
a ona je otisla daleko daleko od mene.
MEDENI MESEC - UZ MORAVU VETAR DUVA
G A D
U Srbiji varos velika
D7 G
kroz nju tece reka Morava
G A D
kraj nje smo se duso sreli mi
D C G D7 G
sreli smo se i zavoleli
REF:
C
uz Moravu vetar duva
G
stari ribar tajnu cuva
D D7 G
niko za nas ne mora da zna
C G
ruke mi ka tebi lete,svi jos misle da si dete
D C Hm Am G
al` na jesen zenicu te ja
U kafani guzva velika
a orkestar nasu pesmu zna
kad zasvira,prozor otvori
249
lagano da majku ne budi.
ILIC MIROSLAV :: VOLEO SAM DEVOJKU IZ GRADA
F# C#7 C# F# C# H F#
Ja sam rodjen u cvecu livada,cuvah stado pokraj reke Gruze
H F# C# F# C# F#
Al zavoleeh devojku iz grada,sa usnama ko pupoljak ruze
F# C# F# C# H F#
Bele ruke a prsti ko dirke,pricahu mi najneznije bajke
H F# C# F# H F# C# F#
Zalud uzdah iz grudi pastirke,zalud suze moje stare majke /2x
Sin sam plavih suma i livada,gajih dobre konje i volove
zbog lepote devojke iz grada,zaboravih brda i dolove
Zvao sam je ulicama dugim i venuo ko trava jesenja
jednog dana spazih je sa drugim,zagrljenu u senci kestena
Sta sad mogu,vec bol svoj da patim,mladost moju da tuzim za celo
Morao sam kuci da se vratim,svome domu u rodjeno selo
I sad opet svoga vranca jasem,i u krcmi krcmim svoja stada
kitim svirce i razbijam case,i proklinjem djevojku iz grada
ILIC MIROSLAV :: POZDRAVI JE POZDRAVI
Intro: Am, C, G, C, Am, C, G, Am, G, Am
Am Dm
Pricaj mi o njoj, pricaj sve sto znas, |
Am G Am |
reci dal je boli sad rastanak nas, | 2 puta
G Am |
ali nemoj laznu nadu da mi das |

Ref:
C
Pozdravi je, pozdravi,
F
volim je k'o pre,
--- ovde tisina ---
eh da mogu poslati joj suze,
G Am G Am
suze bi joj rekle sve!
solo
250
-
Vidjas li je s'kim?, |
ko je srecnik taj, | 2 puta
dali joj na licu blista srece sjaj, |
il jos uvek nije prebolela kraj |
-
refren
solo
-
Nisam sreo jos ljubav slicnu njoj, |
s sreo sam zena, nezna im se broj, | 2 puta
samo ona srecnim cini zivot moj |
refren 2 puta
***VERZIJA 2***
Gm Cm
Pricaj mi o njoj,pricaj sve sto znas
Cm Gm F Gm
reci dal` je boli sad rastanak nas
Gm F Gm
ali nemoj laznu nadu da mi das
B Cm
Ref: Pozdravi je pozdravi volim je ko pre
Es F Gm
eh da mogu poslati joj suze ,suze bi joj rekle sve
vidjas li je s` kim ko je sracnik taj
da li joj na licu blista srece sjaj
il` jos uvek nije prebolela kraj
nisam sreo jos ljubav slicnu njoj
a sreo sam zena ne zna im se broj
samo ona sretnim cini zivot moj
ILIC MIROSLAV :: LUCKASTA SI TI
Intro: Bb, Cm, Gm, F, Gm
Prelaz: Gm, F
Bb Cm F Gm
Hej godine mlade, hej godine lude.
Bb Cm F Gm
Sva proleca nasa sa vama se bude.
C F Gm
Devojcice moja, vesela i mila,
251
C F Gm
mladost nam je sada rasirila krila.
prelaz: Gm F
R E F R E N:
Bb -
Luckasta si ti, takav sam i ja. |
Cm F Bb | 2 puta
Zato sam te duso zavoleo ja. |
-
Postao sam momak, nisam vise dete.
Sve cesce za tobom moje misli lete.
Od pogleda tvoga gorim u sred zime,
od poljubca tvoga zaboravim ime.
refren
Hej godine mlade, hej godine lude.
Svi za vama zale, svi za vama zude.
Devojcice moja, vesela i mila,
mladost nam je sada rasirila krila.
refren
ILIC MIROSLAV :: TEBI
Em F#7 H
Tebi koja vecno cekas usamljena noci duge
Am Em Am H7 Em
tebi koja znas a cutis da sam pored neke druge
G C G Am C
Tebi moja verna drugo moja sreco moja tugo
D C G D C G
tebi dacu srce ludo sve sam dao nemam drugo
Tebi koja suze ronis a ne zelis da ja vidim
tebi koja ludo volis tebi kojoj ja se divim
Tebi pesmom zelim reci da me boli tvoja tama
i da ce me savest peci za sve sto si bila sama
HANKA PALDUM :: VOLJELA SAM, VOLJELA
ritam un-ca(duze) un-ca
Dm C
Trazim drugog a srce nece, nece ni da zna
252
B Dm
Nece ni da zna
Ljubim drugog a srce pati, pati ko da zna
Pati ko da zna
Ref:
C F
Voljela sam, Voljela
Gm Dm
Voljela sam ga
Gm Dm
Cekala sam, cekala
C Dm
Srce da mi da
Kog da trazim kad njemu dadoh sve i ostah sama
Sve i ostah sama
Sta da nudim kad njemu dadoh sve i ostah sama
Sve i ostah sama
Opet kad bih rodila se njemu sve bih dala
Njemu sve bih dala
Jos jednom kad bih ja da biram drugog ne bih znala
Drugog ne bih znala
HANKA PALDUM :: JA TE PJESMOM ZOVEM
C C7 Fm B D#Fm
G7
EI----------8-6-6-8-6-4h6p--4-6-8-6-8-6-4-6-4h6p-3-4--4-6-4-3-3-4-3-------
HI------------------------------------------------------------------6-4-3-
GI--5-555-5---------------------------------------------------------------
DI------------------------------------------------------------------------
AI------------------------------------------------------------------------
EI------------------------------------------------------------------------
Cm G7 Cm
EI------3---------------------------------------------------------------
HI--4-6---4-6-4-3h4p----------------------------------------------------
GI-------------------5--------------------------------------------------
DI----------------------------------------------------------------------
AI----------------------------------------------------------------------
EI----------------------------------------------------------------------
Cm G7 Cm
Zeljno cekam tvoje pismo
Fm B D#
i nadam se svake noci
Fm G7
da ces jednom iznenada
Cm G7 Cm
u zagrljaj meni doci
253
Fm G7
da ces jednom iznenada
Cm G7 Cm
u zagrljaj meni doci
C C7 Fm
Ja te pjesmom zovem
B D#
Zeljna tvoga milovanja
Fm G7
Sliku tvoju ljubim
Cm G7 Cm
Ljubim ljubim svakog dana.
Kao ruza koja vene
Kad joj sunce pije rosu
i ja cekam da mi dodjes
i zamrsis dugu kosu
i ja cekam da mi dodjes
i zamrsis dugu kosu
refren:
Usne zele ruke traze
A nemirno srce sanja
Da cu opet tvoja biti
U svitanje jednog dana
Da cu opet tvoja biti
U svitanje jednog dana
refren:
HANKA PALDUM :: CRNE KOSE
Bm F Bm (1 okidanje)
Crne kose, raspletene, bujne
Fis Gis Dism Cis (un-ca)
mrsile su ruke tvoje samo jedan dan
Fis Gis Dism
ljubio si usne moje rujne
Dism F Bm
ljubav prodje kao kratak san
Bm Dism Bm
Znam jos uvek crne kose sjaj
Fis Gis Dism Bm
osecaje probudi u meni
Dism Bm F
mozes reci da je svemu kraj
Dism F Bm
254
nikada ti verovala ne bi
Bm F Bm
Crne kose niko ne miluje
cekam tebe da ostvarim
jedan davni san
darivacu sve sto se daruje
sve za ljubav sve za jedan dan
Znam jos uvek crne kose sjaj...
Sve za ljubav sve za jedan dan
HALID MUSLIMOVIC :: PUT PUTUJE MOJ JARAN
Dm
Put putuje moj jaran
C
Putujem i ja
Dm C B A
Oba nas je zanijela
Gm A
Asik zena ta
C C7 F
O jarane jarane jarani smo mi
F C7 F B
Ne daj ne daj jednoj zeni
F C7 F
Da nas zavadi
Ljubio je sutra ja il ljubi ti
Nece moci jarane da nas zavadi
Ja cu reci zeni toj a kazi i ti
Neka sama odluci kom ce pripasti
DZINOVIC HARIS :: JESU L´ DUNJE PROCVALE
Gm Cm
Kad bih znao kako si,
Gm
ko li mi te dira,
Gm B
ko pod prozor dolazi,
Cm Gm
da ti zasvi-ra.
255
B F
Jesu l dunje procvale,
B Cm
je l jos sevdah opija,
Ab Gm
da je srcu da te vidi,
F B Gm
pa da zaigra.
Gm Cm
Kad bi barem svratila,
Gm
u san da te poljubim,
Gm B
ne bi zora pristala,
Cm Gm
da me probu-di.
Refren
B F
Kako ce tuga prestati,
B Cm
ako me pjesma ostavi,
Ab Gm
kako ce srce podnijeti,
F B Gm
da te zaboravi,
F B Gm
da zaboravi.
DZINOVIC HARIS :: I TEBE SAM SIT KAFANO

C G C
Kad me slome sve samoce
Am D7 G
U kafanu ja cu poci
Am
Pogazicu obecanja
G F
Prevaricu osjecanja
C G C
Lumpovacu cijele noci

Am D7 G
I tebe sam sit kafano
Am G
Da bogda se zapalila
Am
Ona me je ostavila
256
G F
Zbog vina me napustila
C G C
Sta mi radis Dano, Dano

Cigani mi lome dusu
Sviraju mi pjesme njene
Sjecaju na prosle dane
Diraju mi uspomene
Zbog ljubavi izgubljene

Kafana je moja tuga
Ali bez nje necu moci
Godinama varam boga
Kajacu se znam zbog toga
Vino ce mi glave doci
***VERZIJA 2***
D A D Hm Em A
Kad me slome sve samoce u kafanu ja cu poci
Hm G A G D
pogazit cu obecanja, prevaritcu osjecanja
D A D
lumpovat cu cijele noci./ 2x
Hm Em A Hm G A
ref: I tebe sam sit kafano, da bog da se zapalila
Hm G A G D
ona me je ostavila zbog vina me napustila
D A D
sto mi radis Dano, Dano.
D A D Hm Em A
Cigani mi lome dusu, sviraju mi pjesme njene
Hm G A G D
sjecaju na prosle dane, diraju mi uspomene
D A D
zbog ljubavi izgubljene./ 2x
ref: I tebe sam sit kafano ...
D A D Hm Em A
Kafana je moja tuga, ali bez nje necu moci
Hm G A G D
godinama varam boga kajat cu se znam zbog toga
D A D
vino ce me glave doci./ 2x
257
DZINOVIC HARIS :: LAZE MJESEC
[D#m]Laze mjesec da me s' drugom [G#m]vidio.
[A#]On to kaze da bi sve [D#m]pokvario.
[D#m]Znaju zv'jezde da te nisam [G#m]varao.
[A#]A kafane sta sam samo [D#m]popio. 2x
[C#]Nisam dos'o duso da te [F#]prevarim.
[G#m]Vec sam dos'o da te [A#]poljubim.
Refren:
[D#m]Ja bi opet samo [G#m]s' tobom.
[C#]S' tobom mi je [F#]najbolje.
[D#m]Ja bi opet samo [G#m]s' tobom.
[A#]Bez tebe se ne [D#m]moze.[ B ][ A# ]
[D#m]Ja bi opet samo [G#m]s' tobom.
[C#]S' tobom mi je [F#]najbolje.
[D#m]Ja bi opet samo [G#m]s' tobom.
[A#]Kasno mi je za [D#m]druge.
Sinoc sam bio pred tvojim vratima.
Mislio sam mogla bi da otvoris.
Da si htjela ostao bi satima.
Volio bih da se vise ne ljutis. 2x
[C#]Nisam dos'o duso da te [F#]prevarim.
[G#m]Vec sam dos'o da te [A#]poljubim.
Refren
DZEJ :: UGASILA SI ME
INTRO: Gm D7 Gm
Gm D7 Gm
F Am7 F
Eb D7 Gm
Gm Gm
Ugasila si me, kao zadnju cigaretu
F F
zgazila si me, kao da sam list na vetru
Eb Cm
a ja naivan, mislio sam da me volis
D D7 Gm
i da sam ti preko potreban.
Cm Gm
Sta me je to prevarilo u pogledu tvom
D D7 Gm
258
skitnicom me napravilo, rasturilo dom.
Srusila si me, ko oluja staru kucu
ostavila me, da propadam u bespucu
a ja naivan, mislio sam da me volis
i da sam ti preko potreban.
Uzela si mi, svaki deo moga bica
opila si me, bez otrova i bez pica
a ja naivan, mislio sam da me volis
i da sam ti preko potreban.
MILA MAJKO SALJI ME NA VODU
em H em H em
Mila majko, salji me na vodu
E A H E
Jer me moj dragi, jer me moj dragi
jer me moj dragi kraj izvora ceka
Hajde, kceri, al' se brzo vrati
Uzaludu, uzaludu
uzaludu vremena ne trati
Izvoru hita djeva ponosita
Bl'jedi mjesec je kraj izvora gleda
Oj, mjesece, tako ti mladine
Ti obasjavas brda i doline
Daj mi sad reci dal' me dragi zeli,
Da li se mome povratku veseli
Oj, djevojko, ti si puna cara
Al' tebe dragi kraj izvora vara
DRAGAN KOJIC - KEBA :: IMAO SAM
Uvod: G, C, Am, D, D7, G
G E7 Am D D7 G
Imao, imao sam ljubav jednu
G E7 Am D D7 G
imao, imao sam i zivota vrijednu
G D7 G C E7 Am
sada imam jednu gorku uspomenu 2x
D D7 G
i ranu staru
259
Imao, imao sam, vise nemam
ostala, ostala je samo kletva
sada imam jednu gorku uspomenu 2x
i ranu staru
Sanjao, sanjao sam snove ruzne
svirajte, svirajte mi pjesme tuzne
sada imam jednu gorku uspomenu 2x
i ranu staru.
BESLIC HALID :: ZLATNE STRUNE
E E7 A
1) Od zlatnih struna, ljepsa je kosa tvoja.
H7 E
Od plavog neba veca je ljubav moja.

E
R) Zlatne strune, svirajte mi ovu pjesmu jace.
H7 E H7 E
Sanjao sam kako draga na rastanku place.
2) Od plavog mora ljepse su oci tvoje.
Od svega vise voli te srce moje.
3) Od pesme ove ljubav je nasa jaca.
Od zlatnih struna, rastanka i placa.
BESLIC HALID :: PROKLETA JE ZANA TA
Hm A Hm
Prokleta je zena ta
Hm A Hm
sto razdvoji druga dva
Em
jednom sreca jednom tuga /
A Em A Hm / 2x
nemam nikog, nemam druga /
Hm A Hm
Hajde druze da pijemo
Hm A Hm
da se opet veselimo
Em Hm A
za trenutak da je barem
Hm A Hm
260
mi zaboravimo
Hm A Hm
Hajd' lagano digni casu
Hm A Hm
da zapjevam onu nasu
Em
rane peku, rane bole
Em Em D Hm A
dva jarana (jednu)istu zenu voleeeeeeeeeee
Em A Hm
hej zalosti, hej
Gledam starog druga svog
hladna srca ranjenog
sa njim zena plave kose /
a oci nam suze rose / 2x
Idi druze idi snjom
srusila je i moj dom
al' i tvoj ce ljubav njena /
prokleta je ona zena / 2x
BESLIC HALID :: DIJANA LJUBAVI
A F#7 Hm
Od prvog dana rastanka naseg Dijana lju-ba-vi
E7 D E7 A E7_A_A7
Stalno se pitam najdraza moja zasto me o-sta-vi
D E7 A F#7
Nikad te niko voleti nece ko sto te volim ja
Hm E7 A E7 A E7_A_A7
Dijana, Dijana, ljepoto moga sna
Ako se nekad budemo sreli Dijana ljubavi
Reci mi tada najdraza moja zasto me ostavi
Nikad te niko
Moje te srce kroz pesmu zove Dijana ljubavi
Ako sa drugim ne budes srecna vrati se meni ti
Nikad te niko..
JOS NE SVICE RUJNA ZORA
Am E7 Am C Dm F
Jos ne svice rujna zora
261
Am E7 Am C Dm F
Jos ne trepti list sa gora
Am E7 Am C Dm F
Ne cuje se glas slavuja
Am G F H7 E
Zo-ru da na-ja-vi
Ne cuja se ni zefira
Niti svirka od pastira
Tisina je svud okolo
Sve zivo pociva
Neka cvjeta rosno cvjece
Nek se kiti s njim proljece
Ja ga necu vise brati
Jer nije za mene
Ja ga necu vise brati
Jer ga nemam kojoj dati
Kojoj sam ga darivao
Zemlja je pokrila
Svaka travka u spokoju
Trazi makar radost moju
Al' od mene ona bjezi
Daleko, daleko
JUTROS MI JE RUZA PROCVJETALA
Em H7 Em
Jutros mi je ruza procvetala
Em H7 Em
Ruzu gledam pa sam zaplakala
EmF#7Em H7 Em
Ruzo moja, mladost sam ti dala
Em Am Em C Am F#7H7
Svojom sam te suzom zalivala
Kol'ko sam te puta poljubila
Jos pupoljak mali dok si bila
Ispijala rosu s tvojih grana
'Mesto usne mojega dragana
Moj je dragi otis'o odavno
Ja ga cekam vec godinu ravno
Ruzu gledam, na te mislim dragi
Na tvoj osmeh, na tvoj pogled blagi
262
IMA JEDNA KRCMA U PLANINI
E7 Am E7
Ima jedna krcma u planini
Am Dm F E7
vide joj se svjetla nocu u dolini.
E7 Am
Ko to pali svjece i po krcmi sece
Am Dm Am Dm H7E7
to je lepa Mara, kci starog krcmara
C G7 C
Pa mi zelja dodje
C A7 Dm
to u srcu krijem
Dm Am F E7
bona Maro ja zbog tebe pijem
Svaki taj plamicak stavlja me na muke
harmonika salje sa planine zvuke.
Meni sine lice lijepe krcmarice
oci kao badem, pa se na put dadem.
Ranjenog hajduka
napojila Jana
mome srcu Mara
melem rana.
Kad umoran stignem gore u planinu
novu snagu nadjem u rumenom vinu.
Mara cila, vedra, igrajuj joj njedra
kad mom stolu, dodje mene umor prodje.
Pa mi oci padnu
na ta njedra bujna
bona Maro
daj jos vina rujna.
Pa mi oci padnu
na ta njedra bujna
bona Maro
daj jos vina rujna.
'AJDE JANO
Em A7 D
Ajde Jano konja da prodamo
G Am Em A7 C H7 Em
Ajde Jano, ajde duso, konja da prodamo
263
Em A7 D
Da prodamo, samo da igramo,
G Am Em A7 C H7 Em
Da prodamo, Jano duso, samo da igramo
Em A7 D
Ajde Jano njivu da prodamo
G Am Em A7 C H7 Em
Ajde Jano, ajde duso, njivu da prodamo
Em A7 D
Da prodamo, samo da igramo,
G Am Em A7 C H7 Em
Da prodamo, Jano duso, samo da igramo
Em A7 D
Ajde Jano kucu da prodamo
G Am Em A7 C H7 Em
Ajde Jano, ajde duso, kucu da prodamo
Em A7 D
Da prodamo, samo da igramo,
G Am Em A7 C H7 Em
Da prodamo, Jano duso, samo da igramo
***VERZIJA 2***
Am D7 G
Ajde Jano konja da pro-damo
C Dm F Am
Ajde Jano ajde duso konja da pro-da-mo
Da prodamo samo da igramo
Da prodamo Jano duso samo da igramo
Ajde Jano njivu da prodamo
Ajde Jano, ajde duso njivu da prodamo
Da prodamo samo da igramo
Da prodamo Jano duso samo da igramo
Ajde Jano kucu da prodamo
Ajde Jano, ajde duso kucu da prodamo
Da prodamo samo da igramo
Da prodamo Jano duso samo da igramo
SJECAS LI SE DOLLY BELL - NA MORSKOME PLAVOM ZALU
UVOD:
e-------------------------------------------I
B-101010-10s12-10-7-3--3s5~~--5s8-7-5s3-----I
264
G-------------------------------------------I
D-------------------------------------------I
A-------------------------------------------I
E-------------------------------------------I
SOLO:
eI-----------------------------------------------------------II
BI--333-5-7-10-7s10b-10-12b---3s12b-121212-14-12-10-8-8s12-7-II
GI-----------------------------------------------------------II
eI------------------------------------II
BI-777-8s10-10-10s8-8-8s7-5-5s7-5s3-3-II
GI------------------------------------II
INTRO: D A D
D
Na morskome plavom zalu
G D
gdje carlija vjetric mio
D A
plavusu sam bajnu snio
A D
o kako sam sretan bio.
(D) A
I dok sam joj govorio
D
drhtale su usne njene
A
a u mome zagrljaju
D
plakala je ljubec' mene.
D G
Eh da mi je jos jedanred sresti
D
da je pitam dal' me ona voli
A
da joj kazem da me srce boli
G A D
da je bez nje tuga zivot cijeli.
DOK PALME NJISU GRANE
G
Dok palme njisu grane
D7
i cijela varos spi
C D7 C
265
behari dok mirisu
G D7 G
ljubis me ljubis ti.
A sad je mjesec maj
behara vise nema
ruze su procvjetale
poljubaca vise nema.
Kad jesen opet dodje
i vjetar kad zacvili
cekati cu te na raskrscu
gdje smo nekad sretni bili.
A ti mi doci neces
tisina bice ledna
samo ce vjetar sumit'
bila jednom ljubav jedna.
ROKA MANDOLINEN
F C
Roka mandolinen, dola ne obor,
Gm F
Oh, moj cuc e vogl,
F C7 F
Pse ma ban me dor!
F C F
Vaj, aj, vaj, gishtet me kajmak,
Gm F
Oh, moj cuc e vogl,
F C7 F
Sa jam ba merak! 2x
Roka mandolinen, dola ne sokak,
Oh, moj cuc e vogl,
Sa jam ba merak!
MITO BEKRIJO
H7 Em G Em D C
Ponoc vec je prosla, vreme da se spije,
H7 Em G Em D C H7
Srce jos je burno, davnu zelju krije,
Em D
Ej, kraj pendzera stojim,
C Am H7
266
Cekam da ti vrata otvorim!
H7 Em G Em D C
Zasto, duso, ne dodjes,
H7 Em G Em D C H7
Da me kuci povedes,
Em
Da ti svoje srce predam,
C
Da ti staru majku gledam,
Am C H7
Mito, Mito bekrijo!
AJD IDEMO RADO
E H7 E H7 E
Ajd' idemo Rado ajd' idemo duso
H7 F#m E E7 Am H
ajd' idemo bela Rado dole do Morave
Da vidimo Rado da vidimo duso
Da vidimo bela Rado kako camac plovi
Camac plovi Rado camac plovi duso
Camac plovi bela Rado a krmar govori
Ne udaj se Rado ne udaj se duso
Ne udaj se bela Rado jos si dete mlado
Udaces se Rado udaces se duso
Udaces se bela Rado a pokajaces se
STANI IBAR VODO
e
Stani, stani Ibar vodo, Ibar vodo
C a f# B7 C a f# B7
Kuda zuris tako, kuda zuris tako?
I ja imam jade svoje, jade svoje.
Meni nije lako, meni nije lako.
Tamo gde se Ibar voda, Ibar voda,
U Moravu sliva, u Moravu sliva.
Tamo ima kuca mala, kuca mala.
Tu ja dragu skrivam, tu ja dragu skrivam.
267
NE VREDI PLAKATI
Am Ddim E7 Am
Ne vredi plakati zalud suze liti
Am Dm E7 Am G7
Ako nekad places ne daj da se vidi
C F G7 C E7
Jer nijednom srcu nece lako biti
Am A7 Dm E7 Am
I ne vredi ni zbog koga gorke suze liti
Ne vredi plakati kaze pesma stara
I ne vredi ljubiti sa previse zara
Sva pisma tvoja spalicu na svecu
Jer da citam lazi ne mogu i necu
U NOVOM SADU
G G C
U Novom Sadu u Novom Sadu ej
G C G D7 G A D
U Novom Sa-du ej ostadoh kraj te-be
C G D7 G D Cm A D
O Jelena o Jeli-ce zagrli me po-ljubi me
Cim zora svane i sunce grane ej
U Novom Sadu ej saljem ti poljubce
Kraj tamburasa i dobrog vina ej
U Novom Sadu ej ostadoh kraj tebe
RASTAO SAM PORED DUNAVA
C F C
Rastao sam pored Duna-va
C G C F C
Pored dobrih starih ala-sa
F G F
Lovio sam sara-ne
G7 C
Ispracao brodo-ve
C F G C G7 C
I sni-vao divne snove da-le-ke
268
C7 F C
Dunave, Duna-ve
Fm G7 C G7 C
Kraj tebe mi srce moje o-sta-de
C7 F C
Dunave, Duna-ve
Fm G7 C
Kraj tebe mi srce osta-de
Kada bih se opet rodio
Dunavom bih opet plovio
Mahao bih curama
Sto rastu kraj Dunava
I snivao divne snove daleke
Plovio sam belim ladjama
Morima i mnogim rekama
Al' dunavske obale
I djerdapske klisure
U srcu su samo mome ostale
O JELO, JELENO
C F G7 F C
Oj Jelo Jelo Je-le-no
C G7 C F C
Oj Jelo Jelo Je-le-no
G7 C G7 C
Ne gazi seno ko-se-no
Mladi ga momci kosili
I tebe Jelo prosili
Zbog tebe Jelo Jeleno
Svi piju vino rumeno
NA KRAJ SELA CADJAVA MEHANA
C G C
Na kraj sela cadjava mehana,
G C
Iz nje viri glava necesljana,
F C G7 C
Posrnula od teskoga pica,
Cm D7 G
To je kuca seoskih mladica,
269
Iz kafane pijan ja izlazim,
Cudnovate ulice nalazim.
Levo, desno, nigde moga stana,
Oj, ulice, i ti si pijana!
Gle meseca al' se nakrivio,
Na jedno je oko zazmurio,
A drugo je sasvim zatvorio
Sram ga bilo i on se napio!
Pomrcina, celo selo spava,
A sa toranja ponoc otkucava.
A sto kuca mari l' ko za sate,
Sati biju tek da prozanate!
A u krcmi "Kod Zlatnog Bokala",
Razlezu se glasi od cimbala.
Momcadija, salaj, tera kera,
Krcmarica dobra ne zamera!
Amo vina krcmarice plava,
Iz bureta na kom macak spava.
Nek' je staro ko moj cukundeka,
A vatreno kao tvoja cerka!
Ko to lupa na moj prozor tako?
Zar vi momci ne znate polako?
Moj Milenko leg'o je da spava,
Od te lupe zabole ga glava!
MOJA MALA NEMA MANE
Am
Moja mala nema mane
E7 Dm E7 (drugi put E7.......Am)
Niko nema tako lepe dragane

Am A7 Dm D7
Nema nema nema ona nikoga
G G7 C E7
Ona voli samo mene jednoga
Kad zagrli kad poljubi
U ljubavi sva se ona izgubi
Ako mi je majka ne da
Ukrascu je pa nek pukne od jeda
270
KAD CUJEM TAMBURE
C G7
Iz vrsca stize glas u vinu lezi spas
G F G7 C
Ko vino ne pije taj nek se ubije
C G7
Hej, haj, vinca-ca vinca rumena ha ha
G7 C
Haj, haj, vinca-ca vinca rumena
Kad cujem tambure ja skocim nabure
Porucim litru dve i pijem do zore
Gospodin profesor izadji na prozor
Pa vidi bratiju gde piju rakiju
Sad cujte drugovi sutra su ispiti
A ispit tezak je pa pijmo do zore
MARINKO ROKVIC - JEDINA MOJA
UVOD: G.........C A7 D
G
Ljubav sam cuvao samo za tebe,
C A7 D
samo za tebe
G
A ti si samo volela sebe,
C A7 D
volela sebe

C
Zivot u dusi ostavi tugu
G
Necu moci voleti drugu
G
Jedina moja
C A7 D
Jedina moja
Ja mladost svoju poklonih tebi,
Poklonih tebi
Bolje da nisam patio ne bih,
Patio ne bih
271
Nas'o bih zenu za zivot celi
Koju necu s'drugim da delim
Jedina moja
Jedina moja
Ne reci meni ni reci vise,
Ni reci vise
Idi od mene al' samo tise,
Al' samo tise
Ne diraj ranu u mojoj dusi
Ne diraj zivot koji se rusi
Jedina moja
Jedina moja
GOVORI SE DA ME VARAS
C G7 C - D7
Govori se da me va-ras
G D7 G
I da ces me ostavi-ti
C Am E F C
A znas do-bro da sam bo-lan
C G7 C
I da necu ozdravi-ti
Znam da vise prava nemam
Na te tvoje oci crne
Slazi makar da me volis
Ne daj da mi dusa trne
Ti ces opet ici u kolo
Dolazice polivaci
Pivacete pisme stare
Pratice vas tamburasi
Al' nedeljom kad se setas
Suskace na tebi svila
Sigurno ces zaboravit
Da si nekad moja bila
Ne lomi mi srcu grane
Sacekaj da samo stane
DONESI VINA KRCMARICE
C F C7 F
Donesi vina krcma-rice
272
F C7 F
Rumenog kao tvoje lice
G7 C Fm
Daj da pijem tugu da razbijem
Fm G7 Fm D7 G
Sr - ce me boli hoce da iz-gori
Rumeno lice dve ruzice
A oci crne zaravice
O boze boze sto je stvori
Da mlade momke muci i mori
Celo selo za njom se zanelo
I svi piju tugu da razbiju
EVO BANKE CIGANE MOJ
Am Dm Am Dm Am E
Evo ban-ke ciga-ne moj
E7 Am
Cigane moj sviraj mi ti
A Dm
Ti ces meni svira-ti
G C - E7
Ja cu tebi pevati
Am Dm Am Dm E
Evo ban-ke cigane moj
Dm E E7 Am
Cigane moj sviraj mi ti
Sampanj cemo otvoriti
Otvoriti i popiti
Sve do zore lumpovati
Cigane moj sviraj mi ti
A kad dodje onaj cas
Sampanj ce oborit nas 'hej'
Evo banke cigane moj
Cigane moj sviraj mi ti
MOJ DILBERE
G D7 G Cm BbAbG
Moj dilbere kud se seces Prelaz GFmG
G Ab FmG
273
haj sto i mene ne povedes
haj sto i mene ne povedes
Povedi me u carsiji
haj pa me prodaj bazardziji
haj pa me prodaj bazardziji
Uzmi za me oku zlata
haj pa pozlati dvoru vrata
haj pa pozlati dvoru vrata
NAZDRAVITE DRUGOVI
Em H7 Em D7
U ocima krijem tugu
G D7 G
samoca mi dusu para
C D7 G E7
Pijem da je zaboravim
Am H7 Em
A zelja se veca stvara
Ref:
D7 G D G
Nazdravi te drugovi samnom i sa tugom
D7 G C H7 Em
Otisla je voljena u zagrljaj drugom
drugi put
D7 G D G
Nazdravi te drugovi samnom i sa tugom
D7 G Am H7 Em
otisla je voljena u zagrljaj drugom
U LIJEPOM STAROM GRADU VISEGRADU
Gm Cm Gm Cm A7 D
U lijepom starom gradu Visegradu
Gm Cm Gm F7 F7 B B D7
Gdje duboka Drina vjekovima tece
Gm Cm Gm Cm A7 D
Ostade mi sa-mo tuzna uspome-na
Cm D7Gm Dis Cm A7 D
Asikovah s dragom skoro svako ve-ce
Pa i jutros slusam pjevaju slavuji
Na Bikovcu brdu grada Visegrada
274
Ustaj curo mala ruzo procvjetana
Vec je zora rana Drinu obasjala
Evo sam ti doso sedim na Bikovcu
Slusam Drina huci novi dan se sprema
Sve je kao nekad pjevaju slavuji
Samo tebe draga na Bikovcu nema
Visegrade grade gdje je moja draga
Ko da samnom nikad sretna nije bila
Gledao sam Drinu dok me je ljubila
Zar je nase noci vec zaboravila
SILVANA ARMENULIC - NOCAS MI SRCE PATI
H C H
Sta ce mi zivot bez tebe dragi,
Em F#7 H
kad drugu ljubav ne zelim da imam.
H C H
Sanjam te sanjam skoro svake noci
Em D C H
samo si ti u srcu mom. (2x)
refren:
Em Am
Nocas mi srce pati,
H Em
nocas me dusa boli.
A7
Tesko je kad se voli,
D C H
kad ostanes sam.
STADE SE CVJECE ROSOM KITITI
C F G C
Stade se cvjece rosom kititi,
C F G C
srade se biser zlatom nizati,
C G7 C D7 G
stade se srma srmom srmiti,
D7 G C C7-F C G7 C
stadose momci cure prositi.
Samo ja nemam nigdje nikoga,
samo ja nemam azgin dilbera,
samo ja tuzna tugu tugujem,
275
samo ja nicem se ne radujem.
Gledam ja goluba, golubicu,
gledam ja lastu i lastavicu,
gledam ja jedno drugo cjeluju,
gledam ja zivotu se raduju.
Nikad me nije niko volio,
nikad me nije niko ljubio,
nikada nisam zorom zorila,
nikad nisam sevdah vodila.
Dadose mene mladu za stara,
dadose mene starcu zbog para,
da mu ja mlada kucu redujem,
da mu ja sjedu bradu milujem.
TOMISLAV COLOVIC - MALI MRAV
Am G
Livada, livada
D G Am
Sanjiva se budi, sanjiva se budi
Am G
Mali mrav se krece
D G F G Am
Niz Ajsine grudi, niz Ajsine grudi
Am D
Eeee-eeeej
Am G
Mali mrav, mali mrav
D G Am
Skrenuo sa puta, skrenuo sa puta
Am G
Lepo mu kod Ajse
D G Am
Pa sve dublje luta, pa sve dublje luta
Am G
Mali mrav, mali mrav
D G
U nedrima nest'o
Am G
Moram da ga nadjem
F G Am
Da menjamo mesto
Vrisnula, vrisnula
276
Ajsa vise puta, Ajsa vise puta
Opio se mali mrav,
Pa sve dublje luta, pa sve dublje luta
DA ZNA ZORA
Dm
Da zna zora da zna zora
Dm H7 E
Kada dragog ljubim ja
E7 Dm
Aj ne bi zora ne bi zora
Dm H7 E
Nikad pusta svanu-la
Danju nocu nocu danju
Zbog ljubavi patim ja
Aj a u zoru a u zoru
Gorke suze lijem ja
Danju nocu nocu danju
Rujno vino pijem ja
Aj a u zoru a pred zoru
Pijan kuci idem ja
( Svojoj dragoj idem ja )
SNIJEG PADE NA BEHAR NA VOCE
A A gm gm
Snijeg pade na behar na voce
A C F gm dm
Snijeg pade na behar na voce
gm dm gm A C
Neka ljubi ko kod koga hoce
F gmdm gm A
Neka ljubi ko kod koga hoce
A ko nece nek se ne namece
Od nameta nema selameta
Bez nameta nema kijameta
Da si sretan Boz'ji nesretnice
Da si sretan ko sto si nesretan
Pa da dodjes meni u odaje
Velik bi mi icram ucinila
Metla bi' te medju siltetima
Bas k'o pasu medju binbasama
277
K'o Sultana medju vezirima
Da ti ljubim tvoja medna usta
Medna usta ostala mi pusta
ZVIJEZDA TJERA MJESECA
Uvod:Dm Am F(2) Dm F E 2x

A Dm H E
Zvjezda tjera mjeseca
A Dm H E
Za goru ga otjera
Dm
Za goricom vodica
Am
Na vodici curica
F Dm-F E
Bijelo lice umiva
Daj mi malo vodice
Iz te bijele rucice
Nedam dragi ni kapi
Nek ti dusa ishlapi
Zbog sinocne besjede
Zbog sinocne besjede
I rumene jabuke
Drugoj dajes rumene
Meni mladoj uvele
Uvela ti dusa ta
CRNO VINO CRNE OCI
Am G
Daj mi da pijem nocas tugo
G F E7
Ne pitaj gde sam i s kim sam bio
Am G
Nali mi samo crnog vina
G F E7
Odavno nisam pijan bio
E7 Am
Crno vino crne oci
Am G E7 Am
Sve je crno oko mene
Am
278
Tek ponekad njene oci
Am G -E7 Am
U pla-menu zatrepere
Oprosti tugo same teku
Te suze sto sam dugo krio
Ne pitaj Sta se sa mnom zbilo
Ne pitaj s kim sam nocas bio
279

STRANO:
NICKELBACK - THIS IS HOW YOU REMIND ME
Csus2(335533)
B/D#(143111)
Verse 1:
Csus2 F
Never made it as a wise man
Bb Bb/Eb
I couldn't cut it as a poor man stealin'
Csus2 F
Tired of livin' like a blind man
Bb Bb/Eb
I'm sick inside without a sense of feelin'

C Eb Bb
And this is how you remind me
C F Bb Eb
This is how you remind me of what I really am
C F Bb Eb
This is how you remind me of what I really am

C Eb
It's not like you to say sorry
Bb F
I was waiting on a different story
C Eb
This time I'm mistaken
Bb F
For handing you a heart worth breakin'
C Eb
And I've been wrong, I've been down
Bb F
Into the bottom of every bottle
C Eb
These five words in my head
Bb F
Scream \"Are we having fun yet?\"
C F Bb Eb
Yeah, yeah, yeah, no no
C F Bb Eb
Yeah, yeah, yeah, no no
It's not like you didn't know that
I said I love you and I swear I still do
It must have been so bad
Cause living with me must have damn near killed you
280
And this is how you remind me of what I really am
This is how you remind me Of what I really am
It's not like you to say sorry
I was waiting on a different story
This time I'm mistaken
For handing you a heart worth breakin'
I've been wrong, I've been down
To the bottom of every bottle
Despite words in my head
Scream "Are we having fun yet?"
Yet?, Yet?, Yet?, no no
Verse 1
refren
BRYAN ADAMS - PLEASE FORGIVE ME
H---0-2~-/---0~-------
G--2-----/--2---------
D-2------/-0----7-6-4-
Intro: A E F#m C#m D-let ring
E-let ring A
It still feels like our first night together
E F#m
Feels like the first kiss and it's getting better, baby
C#m D
No one can better this
A E
I'm still holding on, you're still the one
A C#7
The first time our eyes met, same feeling I get
F#m C#7
Only it feels much stronger, I wanna love you longer
A E E-let ring
You still turn the fire on
F#m A D
So if you're feeling lonely, don't
E A
You're the only one I ever want
F#m A D
I only want to make it go
E F#m D-let ring
So if I love you a little more than I should...
A
Please forgive me, I know not what I do
281
F#m
Please forgive me, I can't stop loving you
D
Don't deny me this pain I'm going through
A
Please forgive me, if I need you like I do
E(strong)
Please believe me, every word I say is true
D A E-let ring
Please forgive me, I can't stop loving you
Intro: A E F#m E-let ring
E-let ring A
Still feels like our best time together
E F#m
Feels like the first touch, we're still getting closer, baby
C# D
Can't get close enough
A E
You're still holding on, you're still number one
A C#7
I remember the smell of your skin, I remember everything
F#m C#7
I remember all your moves, I remember you, yeah!
A E E-let ring
I remember the nights, you know I still do
F#m A D
So if you're feeling lonely, don't
E A
You're the only one I ever want
F#m A D
I only want to make it go
E F#m D-let ring
So if I love you a little more than I should...
A
Please forgive me, I know not what I do
F#m
Please forgive me, I can't stop loving you
D
Don't deny me this pain I'm going through
A
Please forgive me, if I need you like I do
E(strong)
Please believe me, every word I say is true
D A E-let ring
Please forgive me, I can't stop loving you
Bridge(1 okidanje pa 4-4tinski): F#m D F#m E F#m D F#m A
282
Isti ritam:
D-E
One thing I'm sure of
D-A
is the way we made love
D-E
One thing I'm in pain now
D-A
is for us to stay strong
D-F#m D
With every ride and every bus I'm prayin'
E-let ring
That's why I'm saying...
A
Please forgive me, I know not what I do
F#m
Please forgive me, I can't stop loving you
D
Don't deny me this pain I'm going through
A
Please forgive me, if I need you like I do
E(strong)
Please believe me, every word I say is true
D A E
Please forgive me, if can't stop loving you
F#
No, believe me, I don't know what I do
E B-let ring F#-let ring E-let ring
Please forgive me, I can't stop loving you
GUNS'N'ROSES - THINK ABOUT YOU
Intro:
C# B //// C# G# //// C# F# //// // ////
C# B //// C# G# //// C# - F#////////
Verses:
B
I say baby you've been looking real good, you know that
G#
I remember when we met
B
its funny how it never felt so good, its a
G#
feeling that i know i know i'll never forget
F# G#
283
ooh it was the best time i can remember
F#
ooh and the love we shared- is
G#
loving that will last forever
Intro:
C# B //// C# G# //// C# F# //// // ////
C# B //// C# G# //// C# - F#////////
B
there wasn't much in this heart of mine,
G#
there was a litle left & babe you found it,
B
its funny how i never felt so high,
G#
its a feeling that i know i know ill never forget,
F# G#
oooh, it was the best time i can remember,
F# G#
oooh, and the love we shared, is lovin' that will last forever
Chorus:
B C# F#
I think about you, honey all the time, my heart says yes
I think about you, deep inside, I love you best
I think about you, you know you're the one I want
I think about you, darling you're the only one
B
I think about yoooooooou
fill:
F# G# B C# x2 - po 2 akorda na 1 4-4tinski
bridge: B 4 x 4-4tinski
B C# G#
i think about you, you know, that i do
B C# G#
i think about you, all alone, only you
B C# G#
i think about you, ooow, its true
B C# G#
i think about you, wohow, yes i douououou oow!
something changed in this heart of mine,
you know that im so glad that you showed me,
honey now you're my best friend, i wanna
stay together till the very end,
oooh, it was the best time i can remember,
284
ooh, and the love we shared, is lovin' that will last forever
Chorus:
B C# F#
I think about you, honey all the time, my heart says yes
I think about you, deep inside, I love you best
I think about you, you know you're, the one I want
I think about you, darling you're, the only one
B
I think about yoooooooou
B
I think about yoooooooou
G# B
only yoooooooooooouu
PATRICK SWAYZE - SHE'S LIKE THE WIND
Intro: (2x)
Am x2 Em x2
e|-----------------------------------------------------|
B|-8-5---7-8-----x-5---7-8-----x-5---7-8-----x-5---7-8-|
G|-----5-------------5-------------5-------------5-----|
D|-----------------------------------------------------|
A|-----------------------------------------------------|
E|-----------------------------------------------------|
(first guitar plays intro during Verse 1)
(second guitar plays chords)
Verse 1:
Am Em
She's like the wind through my tree
Am Em
she rides the night next to me
Am Em
She leads me through moonlight only to burn me with the sun
Am Em
She's taken my heart but she doesn't know what she's done
Chorus:
e|-------0---------------0------------------2----------2-------|
B|-------1-----------------1----------------3------------3-----|
G|-------0-------------------0--------------2--------------2---|
D|-------2---------------------2------------0----------------0-|
A|-------3-----------------------------------------------------|
E|-------0-----------------------------------------------------|
C D
Feel her breath on my face Her body close to me
e|----0-------------0----------------3----------------2--|
B|----1---------------1--------------3----------------3--|
G|----0-----------------0------------4----------------2--|
285
D|----2-------------------2----------5----------------0--|
A|----3------------------------------5-------------------|
E|----0------------------------------3-------------------|
C G D-let ring
Can't look in her eyes she's out of my league
G D Em D C-let ring
G-let ring
Just a fool to believe I have anything she needs she's like the
wind
Intro:
Am Em
I l[Am]ook in the mirror and all I see
Am Em
Is a y[Am]oung old man with only a dream
Am Em
Am I just fooling myself that she'll stop the pain
Am Em
living without her I'll go insane
C D
Feel her breath on my face her body close to me
C G D-let ring
Can't look in her eyes she's out of my league
G D Em D C-let ring
G
Just a fool to believe I have anything she needs she's like the
wind
C D
Feel her breath on my face her body close to me
C G D-let ring
Can't look in her eyes she's out of my league
2 voices:
[G]just a [D/#]fool to beli[Em]eve
(just a f[D]ool to bel[C]ieve[G/B] she´s l[Am]ike a w[D]ind) x4
Solo
e|-------------------------------------------------------------------------|
B|---8--7--5---------------------8--7--5-----------------------------------|
G|------------7--5------------------------7--5--------7--------------------|
D|------------------9--7------------------------9--7-----------------------|
A|------------------------10-----------------------------------------------|
E|-------------------------------------------------------------------------|
e|---------|------|---------------------|---|------------------------------|
B|---8--10¬12-----12--10--8¬-10-----10--12--12-----------------------------|
G|-------------------------------9-----------------------------------------|
286
D|-------------------------------------------------------------------------|
A|-------------------------------------------------------------------------|
E|-------------------------------------------------------------------------|
e|---|---------------------------------------------------------------------|
B|---12--10--8--10---------------------------------------------------------|
G|------------------9------------------------------------------------------|
D|-----------------------12--10---9-10-------------------------------------|
A|--------------------------------------10---------------------------------|
E|-------------------------------------------------------------------------|
e|---|-------------p-------------------------------------------------------|
B|---15--13--12--13--12-----------------------------h----------------------|
G|----------------------12-----------------h--------12--14-----------------|
D|-----------------------------h-----10--10-12-/14-------------------------|
A|---------------------------10--12----------------------------------------|
E|-------------------------------------------------------------------------|
|
e|---17--15----------------------------------------------------------------|
B|-----------17--15--------------------------------------------------------|
G|-------------------16--14------------------------------------------------|
D|---------------------------17--14-\12--10---9-10-------------------------|
A|--------------------------------------------------10---10-/12------------|
E|-------------------------------------------------------------------------|
BRYAN ADAMS - EVERYTHING I DO (I DO IT FOR YOU)
INTRO [C#] [G#] [F#] [G#]
Verse 1(slow):
E||-------------------------------|-------------------------4-
4---|
B||--6-----6-----6----7-9-7h-9p-6-|--4-------4-------4----4-----
6-|
G||--6-----6-----6----------------|--5-------5-------
5------------|
D||--6-----6-----6----------------|--6-------6-------
6------------|
A||-----4-----4-------------------|------6-------
6----------------|
E||-------------------------------|-----(4)-----
(4)---------------|
-------------------------------|------------------------|
--2-------2-------2----2-4-6-2-|--4---------4--4--------|
--3-------3-------3------------|--5---------5--5--------|
--4-------4-------4------------|--6---------6--6--------|
------4-------4----------------|--------6---------------|
-----(2)-----(2)---------------|-------(4)--------------|
Verse 2(just chords):
287
[C#] Look into my eyes, [G#] you will see [F#]what you mean to
[G#]me
Search your [C#]heart, search your [G#]soul and when you
[F#]find me there, you'll [C#]search no [G#]more
Don't [D#m]tell me it's not worth [C#]trying [D#m]for
You can't [D#m]tell me it's not worth [C#]dying [D#m]for
You know it's [C#]true, everything I [G#]do, I do it [C#]for you
[C#] Look into your heart, [G#] you will find, there's
[F#]nothing there to [G#]hide
Take me as I [C#]am, take my [G#]life, I would
[F#]give it all, I would [C#]sacri[G#]fice
Don't [D#m]tell me it's not worth [C#]fighting [D#m]for
I can't [D#m]help it, there's nothing [C#]I want [D#m]more
You know it's [C#]true, everything I [G#]do, I do it [C#]for you
There's [H]no love like [E]your love, and no
[H]other could give [F#]more love
There's [C#]no where unless
[G#]you're there, all the [D#]time, all the [G#]way
solo guitar
Oh you can't [D#m]tell me it's not worth trying [G#]for
I can't [D#m]help it there's nothing I want [G#]more
[F#]Yeah I would [C#]fight for you, I'd [G#]lie for you, walk the
[F#]wire for you, yeah I'd [F#m]die for you
You know it's [C#]true, everything [G#]I do, [F#]oh,(F#m)I do it
[C#]for you
Solo piano(guitar)
Solo guitar:
[F#] [C#] [F#]
[C#]
|----------|------------------------------------------------------
-9------
|----------|-----------------------------------------9-9------
9/11--11-11-
|-8-10-----|-8/10~--/10-8/6-3/6---6/8------6-6--8/10-----6-
6--------------
|------8-8-|---------------------------
6/8--------------------------------
|----------|------------------------------------------------------
--------
|----------|------------------------------------------------------
--------
-------------------------|
11/9/11------------------|
--------8h10--8b-8b-8b-6-|
288
-------------------------|
-------------------------|
-------------------------|
BRUCE DISKINSON - NAVIGATE THE SEAS OF THE SUN
Intro:
Bm C Em D x 2
Intro 2:
G |Am
Distant Earth rise |long ago
Am |Em
Lingers at the borders of our |minds.
G |Am
Mystery spinning |in the dark
Am |Em
In the frozen emptiness of |time.
G |Am
We were lost and we |never knew
Am |Em
Who we were, what we left be|hind.
G |Am
Living half-lives, |we were blind
Am |Bm
To the new frontiers that opened up our |eyes.
Bridge:
Bm |G
To find our |minds were spinning,
Em |D
Souls entwined in a |spiral dance.
Bm |C
The ancient |ways had found us-
Em |D
Again, to give us |one last cha-nce
Verse 1:
Em |G
Living in this |place,
G |Am
Staring into |space, we find,
Am |Em
We might share the corners of our |lives.
Em |G
Infinity runs |deep,
G |Am
Eternity that |we can keep
Am |BREAK
Melting through the frozen wastes of |ti-me
289
Chorus:
G |Am
So we go, and will |not return,
Am |Em
To navigate the seas of the |sun.
G |Am
Our children wi-ll go |on and on,
Am |Em
To navigate the seas of the |sun.
G |Am
So we go, and will |not return,
Am |Em
We'll navigate the seas of the |sun.
G |Am
Our children wi-ll go |on and on,
Am |Bm
To navigate the seas of the |sun.
Bridge:
Bm |C
We can't go |on tomorrow,
Em |D
Living death by |gravity!
Bm |C
Couldn't stand it |any more,
Em |D
We sail our ships to |dis-tant shores!
Verse 2:
Em |G
Purple, gold and |blue,
G |Am
Living colours |every you,
Am |Em
Flowers in the garden of the |Gods.
Em |G
No-one can ever |know,
G |Am
If you never |saw them grow
Am |Bm
This darkness- is really full of |li-ght
[Guitar Solos]
p1-Bm C Em D Bm C Em Bm
p2-Bm A Am Em Bm
Verse 3:
Em |G
Well beyond the |earth,
290
G |Am
The unknown things that |gave us birth,
Am |Em
We'll navigate the seas of the |sun.
Em |G
If God is throwing |dice,
G |Am
And Einstein doesn't |mind the chance,
Am |Em
We'll navigate the seas of the |sun.
Em |G
Infinity runs |deep,
G |Am
Enternity that |we can keep.
Am |Em
We'll navigate the seas of the |sun.
Em |G
Flowers of our |souls,
G |Am
Purple blue and |gold, we find,
Am |Em
To navigate the seas of the |sun.
Em |G
So we know who we |are,
G |Am
Even in this |frozen waste,
Am |Em
We'll navigate the seas of the |sun.
Em |G
Living in this |place,
G |Am
Staring into |space, we find,
Am |Em
We'll navigate the seas of the |sun.
Em |G
Well beyond the |earth,
G |Am
The unknown things that |gave us birth,
Am |Em
We navigate the seas of the |sun.
Em |G
If Einstein's throwing |dice,
G |Am
And God, he doesn't |mind the chance,
Am |Em
We'll navigate the seas of the |sun.
Em |G
And flowers of the |soul
G |Am
Purple blue and |gold, we find,
Am |Em
291
We'll navigate the seas of the |sun.
[FADING]
Em |G
And who we were |before,
G |Am
Eternity that |we can keep,
Am |Em
We'll navigate the seas of the |sun
Em |G
Flowers of our |souls,
G |Am
Purple blue and |gold, we find,
Am |Em
We'll navigate the seas of the |sun.
EUROPE - FINAL COUNTDOWN
intro: + solo
F#m D Bm E
F#m D Bm E
F#m G#/E A D C#
verse:
F#m
We're leaving together,
Bm
But still it's farewell
F#m
And maybe we'll come back,
F#m G#/E A
To earth, who can tell?
D E
I guess there is no one to blame
A G#/E F#m E D
We're leaving ground (leaving ground)
C# E E E E E
Will things ever be the same again?

F#m D Bm E
It's the final countdown...
F#m D Bm E
the final countdown... Ohhh,
F#m
we're heading for Venus
F#m Bm
292
and still we stand tall
F#m
Cause maybe they've seen us
F#m G#/E A
and welcome us all
D E
With so many light years to go
A G#/E F#m E D
and things to be found (to be found)
C#m E E E E E
I'm sure that we'll all miss her so.
F#m D Bm E
It's the final countdown...
F#m D Bm E
the final countdown...
F#m G#/E A D C# F#m
the final countdown... Ohhh!!!
F#m D Bm E
F#m D Bm E
F#m G#/E A D C#
The final countdown... oh-oh
F#m D Bm E F#m D Bm E
it's the final countdown... (the final countdown)
F#m G#/E A D C#
The final countdown (the final countdown), oh
F#m D Bm E
it's the final countdown, we're leaving together
F#m D Bm E
(the final countdown) we'll all miss her so
F#m G#/E A D C#
it's the final countdown (the final countdown, ohh)
F#m D Bm E F#m
F#m
it's the final countdown, we're leaving together, The Final
Countdown!
BON JOVI - IT'S MY LIFE
Intro(bridge)
2x
E------------------
H------------------
G-5-5--------------
D-5-5--------5-6-5-
A-3-3---3-6--------
293
E------------------
C B bridge
This ain't a song for the broken-hearted
A silent prayer for the faith-departed
I ain't gonna be just a face in the crowd
F
You're gonna hear my voice
When I shout it out loud
Chorus:
C
It's my life
G#
It's now or never
D# B
I ain't gonna live forever
C G# B
I just want to live while I'm alive
(It's my life)
My heart is like an open highway
Like Frankie said
I did it my way
I just wanna live while I'm alive
It's my life
This is for the ones who stood their ground
For Tommy and Gina who never backed down
Tomorrow's getting harder make no mistake
Luck ain't even lucky
Got to make your own breaks
Chorus:
It's my life
And it's now or never
I ain't gonna live forever
I just want to live while I'm alive
(It's my life)
My heart is like an open highway
Like Frankie said
I did it my way
I just want to live while I'm alive
'Cause it's my life
Better stand tall when they're calling you out
Don't bend, don't break, baby, don't back down
Chorus:
It's my life
And it's now or never
'Cause I ain't gonna live forever
I just want to live while I'm alive
294
(It's my life)
My heart is like an open highway
Like Frankie said
I did it my way
I just want to live while I'm alive
Chorus:
It's my life
And it's now or never
'Cause I ain't gonna live forever
I just want to live while I'm alive
(It's my life)
My heart is like an open highway
Like Frankie said
I did it my way
I just want to live while I'm alive
'Cause it's my life!
EURYTHMICS - I SAVED THE WORLD TODAY
Caug(5+): 032110
Intro:
[Dm] [F] [C] [Am] every chord x1
[Am] [Caug] [C] [F#dim] [F] [E] [Am] [Am] every chord x1
Am Caug C
Monday finds you like a bomb
F# F
Thats been left ticking there too long
E Am Am
...You're bleeding
Am Caug C
Some days theres nothing left to learn
F# F
From the point of no return
E Am Am
...You're leaving
Refren:
Dm G C F
Hey hey I saved the world today
Dm G C F
Everybodys happy now the bad things gone away
Dm G C F
And everybodys happy now the good things here to stay
G# B Am Am
Please let it stay
295
Am Caug C
Theres a million mouths to feed
F# F
And Ive got everything I need
E Am
...I'm breathing
Am Caug C
And there's a hurting thing inside
F# F
But I've got everything to hide
E Am
...Im grieving
Refren
B B Am Am B B Am Am
...Let it stay... ...Let it stay...
Solo [B] [Am] [B] every chord x2
D D Am Caug C
....Doo doo doo doooooooo the good thing
[F#] [F] [E] [Am] [Am]
refren x2
BRYAN ADAMS - HAVE YOU EVER REALLY LOVED A WOMAN
Intro:
------------|-------------|-----------|
------------|-------------|-----1-----|
-0---2-3-2--|---0-2-3-2---|---0---3-2-|
------------|-------------|-----------|
------------|-------------|-----------|
IMPORTANT:
*The whole song (except for the solo and chorus) is arpeggioed by
hitting
the 5th, 4th, 3rd, then 2nd and holding. In other words, the
first chord,
Eb, is played:
-------------
---------8---
-------8-----
-----8-------
--6----------
296
-------------
*Also, there are three different "step downs".
Fig1
E----------
B----------
G--3---2---
Fig2
E---------
B--1------
G------3--
Fig3
E-----------
B-----------
G--0-----1--
D-----4-----
*So it goes:
Eb, Cm, D, Bb, Fig1, F, Cm, Fig2, Fig3, C, G
*Chorus:
G, D, G, Em7, Am7,D,Am7,D, Am7,D,Am7,D, G
*Bridge:
Eb, G, D, G
*solo:
Eb, C (something? couldn't figure this one out.), D, Bb,F, Bb, F
*then it goes back to arpeggios:
Cm, Fig2, Fig3
*Back to the chorus.
*LYRICS:
To really love a
Eb Cm D(barred)
woman, to understand her, you've got to know her deep inside
Bb Fig1 F
Hear every thought, see every dream, and give her wings when she
wants to fly
Cm Fig2 Fig3
Then when you find yourself lying helpless in her arms, you know
you really
C G
love a woman
*CHORUS:
297
G D
When you love a woman, you tell her that she's really wanted
D G
When you love a woman, you tell her that she's the one
G Em7 Am7 D Am7 D
She needs somebody, to tell her that it's gonna last forever
{2nd}(She needs somebody, to tell her that you'll always be
together)
Am7 D Am7 D G
So tell me have you ever really...really, really ever loved a
woman
*2nd VERSE
To really love a woman, let her hold you,
till you know how she needs to be touched
You've got to breathe her, really taste her
till you can feel her in your blood
And when you see your unborn children in her eyes
you know you really love a woman
*BRIDGE:
You've got to
Eb G
give her some faith, hold her tight, a little tenderness
G
you've got to treat her right
D G
She will be there for you taking good care of you
You really gotta love your woman
*SOLO*
Cm Fig2 Fig3
And when you find yourself lying helpless in her arms,
you know you really love a woman
CHORUS 3X
STEVIE WONDER - I JUST CALLED TO SAY
C#
No New Years Day to celebrate
D#m
No chocolate-covered candy hearts to give away
D#m
No first of spring, no song to sing
298
D#m G# C#
In fact here's just another ordinary day.
C#
No April rain, no flowers' bloom,
D#m
No wedding Saturday within the month of June
D#m
But what it is is something true
D#m G# C#
Made up of these three words that I must say to you.
Refrain:
D#m G# C#
I just called to say I love you
D#m G# A#m
I just called to say how much I care
D#m G# A#m
I just called to say I love you
D#m G# C#
And I mean it from the bottom of my heart.
No summer's high, no warm July,
No harvest moon to light one tender August night.
No autumn breeze, no falling leaves,
Not even time for birds to fly to southern skies.
No Libra sun, no Halloween,
No giving thanks to all the Christmas joy you bring,
But what it is, though old so new,
To fill your heart like no three words could ever do.
Refrain:
I just called to say I love you.
I just called to say how much I care.
I just called to say I love you
And I mean it from the bottom of my heart.
(Move the chords two frets higher)
I just called to say I love you.
I just called to say how much I care.
I just called to say I love you
And I mean it from the bottom of my heart.
BEN KING - STAND BY ME
Intro: A F#m D E A + BASS
A
When the night has come
F#m
299
And the land is dark
D E A
And the moon is the only light we'll see
No, I won't be afraid,
F#m
No, I won't be afraid
D E A
Just as long as you stand, stand by me.
Chorus:
And darling, darling, stand by me,
Fm#
Oh, stand by me.
D E A
Oh, stand, stand by me,
Stand by me.
If the sky that we look upon
Should tumble and fall
Or the mountain should crumble to the sea,
I won't cry, I won't cry,
No, I won't shed a tear
Just as long as you stand, stand by me.
Chorus:
THE POLICE - EVERY BREATH YOU TAKE
Intro
Aadd9
E----------------------------------
B----------------------------------
G-----------6---------------6------
D-------9-----9---9-----9-----9---9
A-----7---7-----7-----7---7-----7--
E---5---------------5--------------
F#madd9
E-------------------------------
B-------------------------------
G--------2---------------2------
D----6-----6---6-----6-----6---6
A--4---4-----4-----4---4-----4--
E2---------------2--------------
Dadd9 D Eadd9 E
E----------------------------------
B----------------------------------
G----9---7-----------11---9--------
300
D--7---7---7---7---9----9---9---9--
A5-----------5---7------------7----
E----------------------------------
Aadd9
E----------------------------------
B----------------------------------
G-----------6---------------6------
D-------9-----9---9-----9-----9---9
A-----7---7-----7-----7---7-----7--
E---5---------------5--------------
VERSE 1:
Aadd9(x2) F#madd9(x2)
Every breath you take and every move you make
Dadd9 Eadd9
F#madd9(x2)
Every bond you break every step you take I'll be watching you
Aadd9(x2) F#madd9(x2)
Every single day and every word you say
Dadd9 Eadd9 Aadd9(x2)
Every game you play every night you stay I'll be watching you
CHORUS :
Dadd9 Cadd9
E-------------------------------------------------------
B-------------------------------------------------------
G-----------------9---7-------------7---5---------------
D---------------7---7---7---7-----5---5---5---5---------
A-------------5-----------5-----3-----------3-----------
E-------------------------------------------------------
..Oh can't you seeeeeee you beloong to
Aadd9
E---------------------------------------------------
B---------------------------------------------------
G-----------6---------------6-----------------------
D-------9-----9---9-----9-----9---9-----------------
A-----7---7-----7-----7---7-----7-------------------
E---5---------------5-------------------------------
meeee how my poooor heart
Badd9
E-------------------------------------------
B-------------------------------------------
G-------------8---------------8-------------
301
D---------11----11--11----11----11--11------
A-------9---9-----9-----9---9-----9---------
E-----7---------------7---------------------
aaaaaches with every steeep you
Eadd9 Eadd9
E---------------------------------------------
B---------------------------------------------
G--------11--9-----------11--9-----9----------
D------9---9---9---9---9---9---9--------------
A----7-----------7---7-----------7------------
E---------------------------------------------
take
Verso 2

Aadd9
Every move you make,
F#madd9
Every vow you break,
Dadd9
Every smile you fake
Eadd9
Every claim you stake,
F#madd9
I\\\'ll be watching you.
Eb
Since you've been gone, I've been lost without a trace,
F
I dream at night I can only see your face,
Eb
I look around but it's you I can't replace,
F
I feel so cold and I long for your embrace,
Eb G
I keep crying baby, baby please.
INSTRUMENTAL:(arpegeo)
Aadd9 x2
F#madd9 x2
Dadd9 x1
Eadd9 x1
F#madd9 x2

Aadd9 x2
F#madd9 x2
Dadd9 x1
Eadd9 x1
Aadd9 x2
302
Chorus :
Dadd9 Cadd9
E-------------------------------------------------------
B-------------------------------------------------------
G-----------------9---7-------------7---5---------------
D---------------7---7---7---7-----5---5---5---5---------
A-------------5-----------5-----3-----------3-----------
E-------------------------------------------------------
..Oh can't you seeeeee you beloong to
Aadd9
E---------------------------------------------------
B---------------------------------------------------
G-----------6---------------6-----------------------
D-------9-----9---9-----9-----9---9-----------------
A-----7---7-----7-----7---7-----7-------------------
E---5---------------5-------------------------------
meee how my poor heart
Badd9
E-------------------------------------------
B-------------------------------------------
G-------------8---------------8-------------
D---------11----11--11----11----11--11------
A-------9---9-----9-----9---9-----9---------
E-----7---------------7---------------------
aaaches with every steeep you
Eadd9 Eadd9
E---------------------------------------------
B---------------------------------------------
G--------11--9-----------11--9-----9----------
D------9---9---9---9---9---9---9--------------
A----7-----------7---7-----------7------------
E---------------------------------------------
take
Verse 3
Aadd9(x2)
Every move you make,
F#madd9(x2)
Every vow you break,
Dadd9
Every smile you fake
Eadd9
Every claim you stake,
F#madd9(x2)
I\\\'ll be watching you.
303
Dadd9
Every move you make,
Eadd9
Every step you take
F#madd9(x4)
I'll be watching you
Aadd9(x2) F#madd9 Dadd9....varias veces
I'll be watching you
BRYAN ADAMS , ROD STEWARD AND STING - ALL FOR LOVE

Intro: D
verse 1
D Dsus4 D
When it's love you give
(I'll be a man of good faith.)
D Dsus4 D
then in love you live.
(I'll make a stand. I won't break.)
D G
I'll be the rock you can build on,
D
be there when you're old,
A
to have and to hold.
verse 2
When there's love inside
(I swear I'll always be strong.)
then there's a reason why.
(I'll prove to you we belong.)
I'll be the wal that protects you
from the wind and the rain,
A Asus4 A
from the hurt and pain.
bridge:
D Em7 D
refren:
D G
Let's make it all for one and all for love.
Em7 D A
Let the one you hold be the one you want, the one you need,
D G Bm A D G
304
'cause when it's all for one it's one for all.
Em7 D
When there's someone that you know
G D
then just let your feelings show
G D Em A D
and make it all for one and all for love.
When it's love you make
(I'll be the fire in your night.)
then it's love you take.
(I will defend, I will fight.)
I'll be there when you need me.
When honor's at stake,
this vow I will make.
Chorus:(same as before)
That it's all for one and all for love.
Let the one be the one you want,
the one you need,
'cause when it's all for one it's one for all.
When there's someone that should know
then just let your feelings show
and make it all for one and all for love.
Bridge:
Bm G
Don't lay our love to rest
Em7 D G
'cause we could stand up to the test
A Bm D G Asus4
We got everything and more than we had planned,
A Bm D
more than the rivers that run the land.
G A
We've got it all in our hands.
CHAMPS - TEUILA
F Eb F Eb F Eb F Eb
E/--5--5--3-----5--5--3-3-3-3--|--5--5--3-----5--3--3-3-3-3--\
B|--6--6--4-----6--6--4-4-4-4--|--6--6--4-----6--4--4-4-4-4--| o
G|--5--5--3-----5--5--3-3-3-3--|--5--5--3-----5--3--3-3-3-3--|
D|--7--7--5-----7--7--5-5-5-5--|--7--7--5-----7--5--5-5-5-5--| o
A|X----------------------------|-----------------------------|
E\X----------------------------|-----------------------------/
305
G#dim7 F G#dim7 F G#dim7 F
E/--4----|--5----|--4----|--5----|--4----|--5----\
B|--3----|--6----|--3----|--6----|--3----|--6----|
G|--4----|--5----|--4----|--5----|--4----|--5----|
D|--3----|--7----|--3----|--7----|--3----|--7----|
A|X------|-------|-------|-------|-------|-------|
E\X------|-------|-------|-------|-------|-------/
Gm C
E/--6-6-6-6--6--6----8-----\
B|--9-9-9-9--9--9----8-----|
G|--7-7-7-7--7--7----9-----| ....T E Q U I L A !!!
D|--9-9-9-9--9--9----10----|
A|X-----------------(10)---|
E\X-----------------(8)----/
Corey Taylor - Bother
Tuning: Down a half step Eb, Ab, Db, Gb, Bb, Eb)
intro and interlude
Eb--7----7-------------------------------------------------------------------|
Bb--8----7--7h8p7--------8-7--7h8p7--------8-7--7h8p7--------8-7-------------|
Gb--7----7-------9p7-----7-7-------9p7-----7-7-------9p7-----7-7-----(paus)--|
Db--7h9--9---------------9-9---------------9-9---------------9-9-------------|
Ab--7----7-let ring---7-let ring--------7-let ring--------7-let ring---------|
Eb---------------------------------------------------------------------------|
verse
Eb--7----7----7----7-------------------7----7--------------------------------|
Bb--8----7----8----7-------------------8----7--7h8p7-------------------------|
Gb--7----7----7----7--------4-4---4----7----7-------9p7----------------------|
Db--7h9--9----7h9--9----5-5-5-5-5-5----7h9--9--------------------------------|
Ab--7----7----7----7----5-5-5-5-5-5----7----7--------------------------------|
Eb----------------------3-3-3-3-3-3------------------------------------------|
Eb--7----7----7----7---------------------5-----------------------------------|
Bb--8----7----8----7---------------------5--5---5----------------------------|
Gb--7----7----7----7--------4-4---4------7--7-7-7----------------------------|
Db--7h9--9----7h9--9----5-5-5-5-5-5-5----7--7-7-7----------------------------|
Ab--7----7----7----7----5-5-5-5-5-5-5-5--5--5-5-5----------------------------|
Eb----------------------3-3-3-3-3-3-3-3--------------------------------------|
chorus
Eb--7----7------5--5----7--7------------------7------------------------------|
Bb--8----8------5--5----8--8------------------8------------------------------|
Gb--7-----------7--7----7---------7--7-8-7-8--7------------------------------|
Db--9------9----7--7----9----9----9--9-9-9-9--7h9----------------------------|
306
Ab--7------7----5--5----7----7----9--9-9-9-9--7------------------------------|
Eb--------------------------------7--7-7-7-7---------------------------------|
Eb--7-7-----7----5--5--------------------------------------------------------|
Bb--8-8---8-8----5--5--------------3-----------------------------------------|
Gb--7-7----------7--7---------4----4--4--------6----6--6--6------------------|
Db--9-9--9-------7--7----5-5--5-5--5--5------7-7--7-7--7--7-7----------------|
Ab--7-7--7-------5--5----5-5--5-5--5--5-5----7-7--7-7--7--7-7----------------|
Eb-----------------------3-3--3-3--3--3-3----5-5--5-5--5--5-5----------------|
bridge
Eb--7-7--7--7--7--7----------------------------------------------------------|
Bb--8-8--8--8--8--8----6-6--6--6--6--6----3-3--3--3--3--3--------------------|
Gb--7-7--7--7--7--7----7-7--8--7--8--7----5-5--5--5--5--5----7-7--7--7--7--7-|
Db--9-9--9--9--9--9----9-9--9--9--9--9----5-5--5--5--5--5----7-7--7--7--7--7-|
Ab--7-7--7--7--7--7----9-9--9--9--9--9----3-3--3--3--3--3----5-5--5--5--5--5-|
Eb---------------------7-7--7--7--7--7---------------------------------------|
CHRIS REA - ROAD TO HELL
Intro
1 1/2 bars drums
Am until piano enters
Am | Dm | F E7 | Am play whole sequence x 2
Verse
Am | Dm | F E7 | Am x 2
C | G | F | E7
Am | Dm | F E7 | Am
Solo no1
Am | Dm | G | C
Am | Dm | F E7 | Am
Verse
C | G | F | E7
Am | Dm | F E7 | Am
Am | Dm | F E7 | F E7 | F E7 | Am
Solo no2
Am | Dm | F E7 | Am x 6 until fade
Solo no1
E||------------15----15--|--15----------------|
307
B||------------17----17--|--17----------------|
G||----------------------|--------------------|
D||----------------------|--------------------|
A||----------------------|--------------------|
E||----------------------|--------------------|

--15--15----15----------|------------8------------|
--17--17----17----------|--------10-----10--13b---|
------------------------|-------------------------|
------------------------|-------------------------|
------------------------|-------------------------|
------------------------|-------------------------|

--8--------------------|--8/--10--------------|
-------------10---10---|--10/-12--------------|
-----------------------|----------------------|
-----------------------|----------------------|
-----------------------|----------------------|
-----------------------|----------------------|

--10------------10--------|--15----15--15------15----|
--12--------12--------12--|--17----------------------|
--------------------------|--------------------------|
--------------------------|--------------------------|
--------------------------|--------------------------|
--------------------------|--------------------------|

--15------15--------------|--15----------------------|
------------------16/-17--|------17/-15--------------|
--------------------------|--------------17----------|
--------------------------|--------------------------|
--------------------------|--------------------------|
--------------------------|--------------------------|

--15--------------------|------------8------------|
------17----------------|--------10-----10--13b---|
------------17----------|-------------------------|
------------------------|-------------------------|
------------------------|-------------------------|
------------------------|-------------------------|

--8----------------8--|--8----8----8----8----8b---8----|
-------------10-------|--------------------------------|
----------------------|--------------------------------|
----------------------|--------------------------------|
----------------------|--------------------------------|
----------------------|--------------------------------|

--7----7----8----7--------|----------------------------------|
--------------------------|----------------------------10----|
--------------------------|-----------------10/---9----------|
308
--------------------------|------10----9---------------------|
--------------------------|----------------------------------|
--------------------------|----------------------------------|
Am
Well I'm standing by the river,
Dm
But the water doesn't flow.
F E
It boils with every poison -
Am
You can think of.
Am
And I'm underneath the street light,
Dm
The delight of joy I know,
F E
Scared beyond belief,
Am
Way down in the shadows.
C
And the perverted fear of violence,
G
Chokes a smile on every face,
F E
Common sense is ringing, out the bells.
Am Dm
This ain't no technological breakdown,
F E Am
Oh-no, this is the road to hell.
Slide Solo
C
And as the roads jam up with credit,
G
And there's nothing you can do,
F
It's all just bits of paper,
E
Flying a way from you.
Am
Oh look out world take a good look,
Dm
Look who's down there,
F E Am
You must learn this lesson fast, and learn it well.
Am Dm
309
This ain't no upwardly mobile freeway,
F E
Oh-no, this is the road,
F E
This is the road,
F E Am
This is the road ... to hell.
EAGLES - HOTEL CALIFORNIA
Intro
Bm F#
On a dark desert highway, cool wind in my hair
A E
Warm smell of colitas rising up through the air
G D
Up ahead in the distance, I saw a shimmering light
Em
My head grew heavy and my sight grew dim
F#
I had to stop for the night

Bm F#
There she stood in the doorway; I heard the mission bell
A E
And I was thinking to myself this could be heaven or this could
be hell
G D
Then she lit up a candle, and she showed me the way
Em F#
There were voices down the corridor, I thought I heard them say

G D Bridge solo
Welcome to the Hotel California.
Em Bm7
Such a lovely place, such a lovely face
G D
Plenty of room at the Hotel California
Em F#
Any time of year (any time of year) you can find it here

Her mind is Tiffany twisted, she got the Mercedes bends
She got a lot of pretty, pretty boys that she calls friends
How they dance in the courtyard, sweet summer sweat
Some dance to remember, some dance to forget

So I called up the captain;Please bring me my wine
We haven't had that spirit here since nineteen sixty-nine
And still those voices are calling from far away
310
Wake you up in the middle of the night,just to hear them say

Welcome to the Hotel California.
Such a lovely place, such a lovely face
They livin' it up at the Hotel California
What a nice surprise (what a nice surprise) bring your alibis
Mirrors on the ceiling, the pink champagne on ice
And she said: We are all just prisoners here, of our own device
And in the master's chambers, they gathered for the feast
They stab it with their steely knives, but they just can't kill
the beast

Last thing I remember, I was running for the door
I had to find the passage back to the place I was before
Relax; said the nightman, We are programmed to receive
You can check out anytime you like, but you can never leave
Solo: 2 min
STING - ENGLISHMAN IN NEW YORK
Ritam un-ca un-ca
G A Bm7
I don't drink coffee I take tea my dear
G A Bm7
I like my toast done on the side
G A Bm7
And you can hear it in my accent when I talk
G A Bm7
I'm an Englishman in New York

G A Bm7 G A Bm7
See me walking down Fifth Avenue, a walking cane here at my side
G A Bm7 G A Bm7
I take it everywhere I walk, I'm an Englishman in New York
Chorus
G A Bm7
O-ho I'm an alien, I'm a legal alien
G A Bm7
I'm an Englishman in New York
G A Bm7
O-ho I'm an alien, I'm a legal alien
G A Bm7
I'm an Englishman in New York
G A Bm7
If "manners maketh man" as someone said
311
G A Bm7
Then he's the hero of the day
G A Bm7
It takes a man to suffer ignorance and smile
G A Bm7
Be yourself no matter what they say ->Refrain
D A A7
Modesty, propriety can lead to notoriety
Bm7 F#
You could end up as the only one
G A
Gentleness, sobriety are rare in this society
G Bm7
At night a candle's brighter than the sun
G A Bm7
Takes more than combat gear to make a man
G A Bm7
Takes more than license for a gun
G A Bm7
Confront your enemies, avoid them when you can
G A Bm7
A gentleman will walk but never run
repeat first verse & Chorus
GUNS'N'ROSES - NOVEMBER RAIN
Intro:
F Am/E Dm7 C
F Dm7 C F7+ Am/E Dm7 C F7+ Dm7 F7+ Dm7 C
F7+ 1X221X
Ab 431114
Am/E 002210
Am7 X02010
Bb X13331
C X32010
C7 X32310
Cm X31010
Dm XX0231
Dm7 XX0211
Eb XX1343
F7+ 1X221X
G/B X20023
F7+ Dm7
312
When I look into your eyes
C
I can see a love restrained
F7+ Dm7
But darling when I hold you
C
Don't you know I feel the same, yeah
Dm7 G
'Cause nothin' last forever
C
And we both know hearts can change
Dm7 G
And it's hard to hold a candle
C
In the cold november rain
F7+ Dm7
We've been through this such a long, long time
C
Just tryin' to kill the pain, oh yeah
F7+
But lovers always come and lovers always go
Dm7 C
And no one's really sure who's lettin' go today
Walkin' away
F7+
If we could take the time to lay it on the line
Dm7
I could rest my head
C
Just knowin' that you were mine
All mine
Dm7 G
So if you want to love me
C
Then darlin' don't refrain
Dm7 G
Or I'll just end up walkin'
C
In the cold november rain
F7+ G
Do you need sometime on your own?
F7+ G
Do you need sometime all alone?
F7+ G
Everybody needs sometime on their own
F7+ G
Don't you know you need sometime all alone
313
Em F C
I know it's hard to keep and open heart
Em F Dm
When even friends seem out to harm you
Em F C
But if you could heal a broken heart
Em F G (F7+ Dm7 C)2x (Dm7 G C)2x F7+
Wouldn't time be out to charm you
F7+ G
Sometimes I need sometime on my own
F7+ G
Sometimes I need sometime all alone
F7+ G
Everybody needs sometime on their own
F7+ G (F7+ Dm7 C)2x
Don't you know you need sometime all alone
F7+
And when your fears subside
Dm7 C
And shadows still remains, oh yeah
F7+ Dm7
I know that you can love me
C
When there's no one left to blame
Dm7 G
So never mind the darkness
C
We still can find a way
Dm7 G
'Cause nothin' lasts forever
C (G/B Am7 G F G C)2x (C7 Ab Bb)2x
Even cold november rain (Cm G F Eb Ab Bb)2x
Cm G
Don't ya think that you need somebody
F Eb
Don't ya think that you need somebody
Ab Bb
Everybody needs somebody
Cm
You're not the only one
You're not the only one
Cm G
Don't ya think that you need somebody
F Eb
Don't ya think that you need somebody
314
Ab Bb
Everybody needs somebody
Cm
You're not the only one
You're not the only one
Cm G
Don't ya think that you need somebody
F Eb
Don't ya think that you need somebody
Ab Bb
Everybody needs somebody
Cm
You're not the only one
You're not the only one
Cm G
Don't ya think that you need somebody
F Eb
Don't ya think that you need somebody
SCORPIONS - WIND OF CHANGE
C Dm C
I follow the Moskva down to Gorky Park,

C Dm Am G C
listening to the wind of change
C Dm C
An August summer night, soldiers passing by,

C Dm Am G
listening to the wind of change
C Dm C
The world is closing in, and did you ever think

C Dm Am G C
that we could be so close like brothers
C Dm C
The future's in the air can feel it everywhere

C Dm Am G
a blowin' in the wind of change
C G Dm G C G
Take me to the magic of the moment on a glory night,
Dm G Am F G
where the children of tomorrow dream away in the wind of change
C Dm C
Walking down the street, distant memories

315
C Dm Am G C
are buried in the past forever

C Dm C
I follow the Moskva down to Gorky Park

C Dm Am G
listen to the wind of change

C G Dm G C G
Take me to the magic of the moment on a glory night,
Dm G Am F
G
where the children of tomorrow share their dreams with you and
me
C G Dm G C G
Take me to the magic of the moment on a glory night,
Dm G Am F G
where the children of tomorrow dream away in the wind of change

Am G
The wind of change blows straight into the face of time,
Am G
like a stormwind that will ring the freedom bell for peace of
mind.
C Dm E7
let your balalaika sing what my guitar wants to sing
THE SHADOWS - APACHE
RITAM:
1. DOLE,RAZLAGANJE
2. PRATNJA,BRZA(un-ca-ca un-un-ca)
3. GALOP NA F,PA Am BRZO(*2)
4. 1 DUZI PA 3 KRACA
5. BRZI RITAM(dole,dole-gore,dole-bass zica,dole-bass,dole-bass)
uvod bubnjevi
STRUKTURA:
Am, D x2 *1
Am, D, Am,Am x2, D,G,D,D Am,D,Am,Am *2
F, Am x2 *3
316
F, G, Am, Am F, G, C, C, F, G, Am, Am *4
F,Am x2 *3
Am, D, Am,Am x2, D,G,D,D Am,D,Am,Am *5
F, G, Am, Am F, G, C, C, F, G, Am, Am *4
F, Am x2 *3
Am, D x3 *1
EAGLE EYE CHERRY - SAVE TONIGHT
INTRO: Am, F, C, G x2
INTRO: Am F, C G x2 sa bubnjevima,glasom i 2.gitarom
Mmmmmm mmmmm
GO ON AND CLOSE THE CURTAINS
CAUSE ALL WE NEED IS CANDLE LIGHT
YOU AND ME AND A BOTTLE OF WINE
GOING TO HOLD YOU TONIGHT(A YEAH)
WELL WE KNOW I'M GOING AWAY
AND HOW I WISH, I WISH IT WEREN'T SO
SO TAKE THIS WINE AND DRINK WITH ME
LET'S DELAY OUR MISERY
SAVE TONIGHT
AND FIGHT THE BREAK OF DAWN
COME TOMORROW
TOMORROW I'LL BE GONE
SAVE TONIGHT
AND FIGHT THE BREAK OF DAWN
COME TOMORROW
TOMORROW I'LL BE GONE
THERE'S A LOG ON THE FIRE
AND IT BURNS LIKE ME FOR YOU
TOMORROW COMES WITH ONE DESIRE
TO TAKE ME AWAY IT'S TRUE
IT AIN'T EASY TO SAY GOODBYE
DARLING PLEASE DON'T START TO CRY
CAUSE GIRL YOU KNOW I'VE GOT TO GO, OH
LORD I WISH IT WASN'T SO
SAVE TONIGHT
AND FIGHT THE BREAK OF DAWN
317
COME TOMORROW
TOMORROW I'LL BE GONE
Solo 1: Am F C G x4 + SOLO GUITAR
SAVE TONIGHT
AND FIGHT THE BREAK OF DAWN
COME TOMORROW
TOMORROW I'LL BE GONE
SAMO NA 1.GITARI RITAM, BEZ BUBNJEVA:
TOMORROW COMES TO TAKE ME AWAY
I WISH THAT I, THAT I COULD STAY
GIRL YOU KNOW I'VE GOT TO GO, OH
LORD I WISH IT WASN'T SO
SOLO 2 + pratnja
SAVE TONIGHT
AND FIGHT THE BREAK OF DAWN
COME TOMORROW
TOMORROW I'LL BE GONE
SAVE TONIGHT
AND FIGHT THE BREAK OF DAWN
COME TOMORROW
TOMORROW I'LL BE GONE
SAVE TONIGHT
AND FIGHT THE BREAK OF DAWN
COME TOMORROW
TOMORROW I'LL BE GONE
SAVE TONIGHT
AND FIGHT THE BREAK OF DAWN
COME TOMORROW
TOMORROW I'LL BE GONE
TOMORROW I'LL BE GONE
TOMORROW I'LL BE GONE
TOMORROW I'LL BE GONE
TOMORROW I'LL BE GONE
SAVE TONIGHT
SAVE TONIGHT
SAVE TONIGHT
SAVE TONIGHT
BEST OF ME - BRYAN ADAMS
[C#m]sometimes w[E]ords are hard to[A] find [E]
i'm l[G#m]ooking for that per[A]fect line[B]
318
[A]to let you know you're always on [E]my mind [G#m]
[B]
E Eaug A
ya this is love - n' i've learned enough to know
[A6]i'm never lettin' go [E]
no, no, no -[G#m] won't let go [B]
Chorus:
[E]when you want it - when you n[C#m]eed it
you'[A]ll always have the best of me[F#m]
[E]i can't help it - bel[C#m]ieve it
[A]you'll always get the best of[F#m] me
Verse 2: same as verse 1
i may not alway s know what's right
but i know i want you here tonight
gonna make this moment last for all your life
oh ya this is love - n' it really means so much
i can tell from every touch
no, no, no - can't get enough
(Chorus)
Solo: play four times
E---0-----0------0--0--0---0-----0----0----0--0-----------------------------------
B---7h9--9b1/2--7--5--5---0h2--5h7--7b--7--5--------------------------------------
G---------------------------------------------------------------------------------
D---------------------------------------------------------------------------------
A---------------------------------------------------------------------------------
E---------------------------------------------------------------------------------
(play last 3 lines of verse 1)
(Chorus)
(Chorus played up one tone)
Solo: play four times
E---0-----0------0--0--0---0-----0----0----0--0-----------------------------------
B---7h9--9b1/2--7--5--5---0h2--5h7--7b--7--5--------------------------------------
G---------------------------------------------------------------------------------
D---------------------------------------------------------------------------------
A---------------------------------------------------------------------------------
E---------------------------------------------------------------------------------
REG PRESLEY: DICK JAMES MUSIC - LOVE IS ALL AROUND
Intro:
A D E D Hm ili riffovi
E-5-5-10-10-12-12-12-10-7-
D Em G A D Em G A
I feel it in my fingers, I feel it in my toes
319
D Em G A D Em G A
Well, love is all around me, and so the feeling grows
D Em G A D Em G A
It's written on the wind, it's everywhere I go
D Em G A D Em G A
So if you really love me, come on and let it show
BRIDGE: H A G# E F#
Chorus:
G Em
You know I love you, I always will
G D
My mind's made up by the way that I feel
G Em
There's no beginning, there'll be no end
G A A Em F# G(#)
Cos on my love you can depend
D Em G A
I see your face before me as I lay on my bed
I kinda get to thinking of all the things you said
You gave your promise to me and I gave mine to you
I need someone beside me in everything I do
You know I love you, I always will
My mind's made up by the way that I feel
There's no beginning, there'll be no end
Cos on my love you can depend
It's written on the wind, it's everywhere I go
So if you really love me, come on and let it show
Come on let it show
Come on let it show
Come on let it show

THE CALLING - WHEREVER YOU WILL GO
Intro:
C G Am F
E------------------|---------------------|-------------------|----
-------------|
B------------1-----|------------1--------|------------
1------|------1----1---1-|
G------0---0---0---|------0---0---0------|------0---0---
0----|----------2--2---|
D----2-----------2-|----0-----------0----|----2-----------2--|----
3---3--------|
320
A--3-----3---------|--2-----2------------|--0-----0----------|--
0--------------|
E------------------|---------------------|-------------------|----
-------------|
Verse One:
C G Am F
So lately You're wondering Who will be there to take my place
C G Am F C
When I'm gone you'll need love to light the shadows on your face
C G Am F
If a grate wave shall fall and fall upon us all
C G Am F
Then between the sand and stone could you make it on your own?
Chorus(fast rhytam)
C G Am F
If I could then I would I'll go wherever you will go
C G Am F
Way up high or down low I'll go wherever you will go
Verse Two:
Maybe I'll find out a way to make it back someday
To want you to guide you through the darkest of your days
If a great wave shall fall and fall upon us all
Then I hope there's someone out there who can bring me back to you
Chorus:
If I could then I would I'll go wherever you will go
Way up high or down low I'll go wherever you will go
Bridge(fast rhytam):
Am F G
Run away with my heart
Em Am
Run away with my hope
F G Em - F
Run away with my love
Verse Three:
I know now just quite how
My life and love might still go on
In your heart in your mind
I'll stay with you for all of time
Chorus:
If I could then I would I'll go wherever you will go
Way up high or down low I'll go wherever you will go
321
If I could turn back time I'll go wherever you will go
If I could make you mine I'll go wherever you will go
FRANK SINATRA - CAN'T TAKE MY EYES OFF OF YOU
C#
You're just too good to be true
C#
Can't take my eyes off of you
C#7
You'd be like heaven to touch
F#
I wanna hold you so much
F#m
At long last love has arrived
C#
And I thank god i'm alive
F#
You're just too good to be true
F#m C#
Can't take my eyes off of you
Pardon the way that i stare
There's nothing else to compare
The sight of you leaves me weak
There are no words left to speak
But if you feel like i feel
Please let me know that it's real
You're just too good to be true
Can't take my eyes off of you
Bridge G# A G# A G# A C H A x3
G# A G# A AAA(fast)
Chorus:
D#m G#
I love you baby, if it's quite alright
C# A#
I need you baby to warm the lonely nights
I love you baby, trust in me when i say okay
Oh pretty baby, don't let me down, i pray
Oh pretty baby, now that i've found you, stay
D#m(vise okidanja)G#
And let me love you, baby, let me love you
You're just too good to be true
Can't take my eyes off of you
322
You'd be like heaven to touch
I wanna hold you so much
At long last love has arrived
And i thank god i'm alive
You're just too good to be true
Can't take my eyes off of you
Bridge G#m A G#m A G#m A Cm H A x3
G#m A G#m A AAA(fast)
THE POLICE - EVERY BREATH YOU TAKE!"# #$%&'()
INTRO: F# D#m H C# F#
F# D#m
Every breath you take, every move you make
H C#
Every bond you break, every step you take
F#
I'll be watching you
Every single day, every word you say
Every game you play, every night you stay
I'll be watching you
H
Oh can't you see
F#
You belong to me
G#7
How my poor heart aches
C#
With every step you take
Every move you make, every vow you break
Every smile you fake, every claim you stake
I'll be watching you
D
Since you've gone I've been lost without a trace
E
I dream at night, I can only see your face
D
I look around but it's you I can't replace
323
E
I feel so cold and I long for your embrace
D F# D#m H C# F#
I keep crying baby, baby, please
INTRO: F# D#m H C# F#
H
Oh can't you see
F#
You belong to me
G#7
How my poor heart aches
C#
With every step you take
Every move you make, every vow you break
Every smile you fake, every claim you stake
I'll be watching you
Every move you make, every step you take
I'll be watching you

SANTANA * SEAL - YOU'RE MY KIND
Intro: Am Dm G C G x3
C Dm7
Stay with me baby
G C
And that's all I ask of you
C Dm7
And I know that someday
G
You won't remember
C Dm
The way that this moment feels to you
Am
Don't let it go
E Am
Don't turn your back on what you think you know
Am
You never know you know
Dm Am
Don't leave it alone
Dm E
Cause I need you to cling to
Chorus:
324
Am
Cause you are my kind
Dm
You're all that I want
G
Here in this life
C
Until we are gone
Am
Our breath and our skin
Dm
Our hearts and our minds
G
They're one and the same
Am
You are my kind
C Dm7
Well call on me baby
G C
If you should ever need someone
C Dm7
To help get your head straight
G
I'll be your resident all night
C
Sure am glad just having you around
Dm Am
all that I know
E Am
When you find love you never let it go
Am
You never know you know
Dm Am
Without you I'm lost
Dm
I get scattered
E
I'm shattered
Chorus
Raindrops Keep Falling on My Head
Intro: F-C-Bb-C
F
Raindrops keep falling on my head
F7 Bb Am
and just like the guy whose feet are too big for his bed,
325
D7 Am D7 Gm7
nothing seems to fit, Those raindrops are fallin' on my head they
keep fallin'
C7 F
So I just did me some talkin' to the sun,
F7 Bb Am
and I said I didn't like the way he got things done
D7 Am D7 Gm7
Sleepin' on the job, Those raindrops are fallin' on my head they
keep fallin'
C7 F
But there's one thing I know,
Bb C Am
the blues they send to meet me, won't defeat me
D7 Gm7 Bb C Bb C
It won't be long till happiness steps up to greet me
F
Raindrops keep fallin' on my head,
F7 Bb Am
but that doesn't mean my eyes will soon be turnin' red,
D7 Am D7 Gm7
Cryin's not for me, cause I'm never gonna stop the rain by
complainin'
C7 F C7
because I'm free, nothings worryin' me
(instrumental) F-F-Bb-C-Am
D7 Gm7 Bb C Bb C
It won't be long till happiness steps up to greet me
(Repeat last verse)
Black Sabbath - Paranoid Chords
Finished with my woman cuz she couldn't help me with my mind
Em D Em
People think I'm insane because I am frowning all the time
Em D Em
Em C D Em
All day long I think of things but nothing seems to satisfy
Em D Em
Think I'll lose my mind if I don't find something to pacify
Em D Em
Can you help me? Are you for my brain?
D Em
326
Oh yeah
D
Em D Em
I need someone to show me the things in life that I can't find
Em D Em
I can't see the things that make true happiness I must be blind
Em D Em
Theres a solo here, but I sure as hell can't play it. If, like me,
you can't be
bothered to learn a whole solo, play the Em-C-D-Em from before and
carry on like this.
Em D Em
Make a joke and I will sigh and you will laugh and Ii will cry
Em D Em
Happiness I cannot feel, so love for me is so unreal
Em D Em
That Em-C-D-Em again, and then...
And so as you hear these words telling you now of my fate
Em D Em
I tell you to enjoy life I wish I could but its too late
Em D Em
See, nothing too hard there. If you have any problems, feel free
to send me a messa
BLAZE OF GLORY
(Lyrics & Music by: Jon Bon Jovi)
dm
----------------8---10------------------------------------------------|
8-10h-10----10----------10------------8-----8-------------------------|
--------------------------------9-10------------9---10--7-------------|
----------------------------------------------------------------------|
----------------------------------------------------------------------|
----------------------------------------------------------------------|
Verse1: I [dm] wake up in the morning
And I [C] raise my weary head
I've got an [G] old coat for a pillow
And the [dm] earth was last night's bed
I [F] don't know where I'm going
Only [C] God knows where I've been
I'm a [G] devil on the run
A six gun lover
A [dm] candle in the wind
327
Verse2: When you've [dm] brought into this world
They [C] say you're born in sin
Well at [G] least they gave me something
I didn't have to [dm] steal or have to win
Well they [F] tell me that I'm wanted
Yeah, [C] I'm a wanted man
I'm a [G] colt in your stable
I'm what Cain was to Abel
Mister [dm] catch me if you can
Chorus: I'm going [G] down in a blaze of [D] glory
Take me [G] now but know the [D] truth
I'm going [G] out in a blaze of [D] glory
Lord I [C] never drew first
But I drew first blood
I'm [G] no one's sone
Call me young gun
Verse3: You [dm] ask about my conscience
And I [C] offer you my soul
You ask if I'll [G] grow to be a wise man
Well I [dm] ask if I'll grow old
You [F] ask me if I've known love
And what it's like to [C] sing songs in the rain
Well, I've [G] seen love come
And I've seen it shot down
I've [dm] seen it die in vain
Chorus: Shot [G] down in a blaze of [D] glory
Take me [G] now but know the [D] truth
'Cause I'm going [G] down in a blaze of [D] glory
Lord I [C] never drew first
But I drew first blood
I'm the [G] devil's son
Call me young gun
Verse4: Each [dm] night I go to bed
I pray the [C] Lord my soul to keep
No I ain't [G] looking for forgiveness
But be[dm]fore I'm six foot deep
Lord, I [F] got to ask a favor
And I [C] hope you'll understand
328
'Cause I've [G] lived life to the fullest
Let this [dm] boy die like a man
[G] Staring down a bullet
Let me [dm] make my final stand
Chorus: Shot [G] down in a blaze of [D] glory
Take me [G] now but know the [D] truth
I'm going [G] out in a blaze of [D] glory
Lord I [C] never drew first
But I drew first blood
and I'm [G] no one's son
Call me young [D] gun [C]
I'm a young [G] gun [D]
[D] [C] [G]
Keep the faith (J.BonJoi! R.Sa"#o$a % D.&hi'()
Intro G | F | G |
G | Bb | C | G
Verse 1
G Bb C G
Mother mother tell your children that their time has just begun
G Bb C Eb F G
I have suffered for my anger, there are wars that can't be won
Verse 2
Father father please believe me I am laying down my guns
I am broken like an arrow forgive me forgive your wayward son
Verse 3
(Everybody needs somebody to love) mother mother (Everybody needs
somebody to hate) please believe me
Everybody's bitching 'cause they can't get enough and it's hard to
hold on when there's no one to lean on
Chorus
G Bb F C G
Faith! You know you're gonna live thru the rain Lord you got to
keep the faith
Faith! Don't let your love turn to hate right now we got to keep
the faith
G
Keep the faith, keep the faith Lord we got to keep the faith
G | Bb | C | G
Verse 4
Tell me baby when I hurt you do you keep it all inside
329
Do you tell me all's forgiven and just hide behind your pride
Verse 5
(Everybody needs somebody to love) mother mother (Everybody needs
somebody to hate) please believe me
Everybody's bleeding 'cause the times are tough and it's hard to
be strong when there's no one to dream on
Chorus
Faith! You know you're gonna live thru the rain Lord you got to
keep the faith
Faith! You know it's not to late right now we got to keep the
faith
Faith! Don't let your love turn to hate Lord we got to keep the
faith
Keep the faith, keep the faith Lord we got to keep the faith
Solo G | Bb | C | G (3x), G | Bb | C | Eb - F | G
Verse 6
Walking in the footsteps of society's lies I don't like what I see
no more, sometimes I wish that I was blind
Sometimes I wait forever to stand out in the rain so no one sees
me cryin' trying to wash away the pain
Verse 7
Mother father there's things I've done I can't erase every night
we fall from grace
It's hard with the world in your face, trying to hold on, trying
to hold on.
Chorus
Faith! You know you're gonna live thru the rain Lord you got to
keep the faith
Faith! Don't let your love turn to hate right now we got to keep
the faith
Keep the faith, Keep the faith try to hold on, trying to hold on
Faith! Keep the faith, Keep the faith try to hold on, trying to
hold on
...
Bon Jovi - Runaway
(Am)On the street where you live girls talk about
their (G)social lives
They're made of (E) lipstick, plastic and (F)
paint, a touch of sable (Am) in their eyes
330
(Am)All your life all you ask is when your Daddy's
gonna (G)talk to you
You're (E)living in another (G)world, trying to get
your (Am) messages through
(E)No one heard a (G)single word you (Am)said
They should've (Dm)seen it in your eyes
What was (C)going around your (G) head
(Am)Ooooh she's a little (G)runaway
(C) Daddy's girl learned (Em)fast (G) all those
things he (Am) couldn't say
(G) Ooooh (E) she's a little runaway
(Am)A different line every night guaranteed to (G)
blow your mind
(E)I see you out on the (F) streets, call me for a
(Am) wild time
(Am) So you sit home alone cause there's nothing
left (G) that you can do
There's only (E) pictures hung in the (G)shadows
left there to (Am) look at you
(E) You know she likes the (G) lights at night on
the (Am) neon Broadway signs
(Dm) She don't really mind, it's only (C) love she
hoped to (G)find
(Am)Ooooh she's a little (G)runaway
(C) Daddy's girl learned (Em)fast (G) all those
things he (Am) couldn't say
(G) Ooooh (E) she's a little runaway
(E)No one heard a (G)single word you (Am)said
They should've (Dm)seen it in your eyes
What was (C)going around your (G) head
Ooooh... she's a little runaway...
SULTANS OF SWING
Dire Straits
key: Dm
Intro lead
Dm C C Dm C C
Dm
you get a s hiver in the dark
C Bb A
its rain ing in the p ark but m eantime
Dm C Bb A
south of the river you s top and you hold everyth ing
F C
331
a band is blowing Di xie double four time
Bb Dm Bb C
you feel alright when you hear that music r ing
Dm C Bb A
you step inside but you d on't see too many fac es
Dm C Bb A
coming in out of the rain to hear the ja zz go do wn
F C
too much competition too many other places
Bb Dm
but not too many horns can make that s ound
Bb C
way on downsouth
Bb C
way on downsouth
Dm Dm C Bb C Dm C Bb C
London town
Dm C Bb A
you check out gu itar george he knows all the cho rds
Dm C Bb A
mind he's strictly rhythm he doesn't want to make it
cry or sing
F C
and an old guitar is all he can afford
Bb Dm Bb C
when he gets up under the lights to play his thi ng
Dm C Bb A
and harry doesnb't m ind if he doesn't make the
scene
Dm C Bb A
he's got a daytime j ob he's doing alri ght
F C
he can play honky tone just li ke anything
Bb Dm Bb C
saving it up for frida y night
Bb C
with the sultans
Dm Dm C Bb C
with the sultans of s wing
Dm C Bb C
Dm C Bb A
and a cr owd of young boys they're fo oling around in the
corner
Dm C Bb A
drunk and dressed in their best brown baggies and their
platform sol es
F C
they don't give a damn about any trumpet playing band
332
Bb Dm Bb C
it ain't what they call rock and roll
Bb C
and the sultans
Dm Dm C Bb C
and the sultans played c reole
Dm C Bb C
Lead 1: ( chords:Follow 1 full verse)
Dm C Bb A
and then the man he st eps right up to the m
icrophone
Dm C Bb A A7
and says at last just as the time bell r ings
F C
thank you goodnight now it's time to go home
Bb Dm Bb C
and he m akes it fast with on e more thing
Bb C
we are the sultans
Dm Dm C Bb C
we are the sultans of swing
Jet - Are You Gonna Be My Girl
Intro baSS:
E-5-5-3-5
e-------------------------
B-------------------------
G------5-7^-7-5-----------
D----7-5-7^-7-5-7---------
A----7----------7---------
E------------------------- then start banging out an A barre
I said 1 2 3, tell ya had to come with me
A
coz ya look so fine and i really wanna make ya mine
A
I said ya look so fine and I really wanna make ya mine
I said 4 5 6, cmon and get your kicks
A
now ya dont need money when ya look like that do ya honey?
(intro riff)
333
BRIDGE:
D D D
---------------------------
--7----7----7-------5---*--
--7----7----7-------5---+--
--7----7----7-------5---,--
--5----5----5-------5---,--
---------------------------
Big black boots
Long brown hair
She so sweet with her
get back stare
CHORUS:
A
Well I could see
C
You home with me
D A
But you were with another man yeah
A C
I know we aint got much to say
D A
Before I let you get away
D D D F*(Play F* as X 8 10 10 10 8)
I said are you gonna be my girl?
VAMPIRI :: RAMA LAMA DING DONG
A F#m
Ja volim slatku malu
D E
rama-lama rama-lala ding-dong
A F#m
za to znaju svi u gradu
D E
rama-lama rama-lala ding-dong
A F#m
hoce da mi je ukradu
D E A
a tako zelim je
Ja volim slatku malu
rama-lama rama-lala ding-dong
za nju ja bih dao sve
rama-lama rama-lala ding-dong
ceo svet bi bio moj
334
da ona zavoli me
Refren: D D
ja volim volim volim je
A A
ali ona svima kaze ne-e-e
D D
jedno je sigurno da doci ce dan
E
kad bice moja znam
Ja volim slatku malu
rama-lama rama-lala ding-dong
zelo bih da joj pevam
rama-lama rama-lala ding-dong
svake noci da je gledam
i budem pored nje
VLADO GEORGIEV - STA BI PRIJATELJI MOJI

Am
Sve si radila po svome
G Am
nisi me ni pitala...
Govorila si da sam lud
C G Am Am
samo da bi skitala...
Dm Am
A ja, sta sam mogao tu?
Dm Am
Da dijelim sve na pola
Dm Am
i da oprostim, dobra volja je tu,
F E stop
al ne mogu nikada...
REF:
C
sta bi prijatelji moji
CGAm
da se napijem sad
F
sve da razbijem
G
da prica celi grad
C
Sta bi rekli dobri ljudi
CGAm
da zaplacem sad,
335
F
da te ostavim zauvjek,
F C G
samu, i da te ne zalim ja...
Am
A sve si radila po svome,
G Am
nisi me ni pitala,
govorila si da sam lud,
C G Am
samo da bi skitala.
A ja, sta sam mogao tu?
Da dijelim sve na pola,
da ti oprostim, dobra volja je tu,
al ne mogu nikada...
Sta bi prijatelji moji
da se napijem sad,
sve da razbijem,
da prica celi grad.
Sta bi rekli dobri ljudi
da zaplacem sad,
da te ostavim zauvjek,
samu, i da te ne zalim ja...
C C G Am F C(kao za refren)G#
tu,tu,tururuu,turuurtururuu...
REF:
C#
Sta bi prijatelji moji
C#G#Bm
da se napijem sad,
F#
sve da razbijem,
G#
da prica celi grad.
C#
Sta bi rekli dobri ljudi
C#G#Bm
da zaplacem sad,
F#
da te ostavim zauvjek,
F# C# G#
samu, i da te ne zalim ja,
G# C#
nikada...

336
VLADO GEORGIEV :: NISAM LJUBOMORAN
Intro: Bm
e|--6---------------1-----1-2-2-1-----------------------------------------|
h|--6-----6-7-7-6---1---1--------------------6---7-6----1------6-7-9-7-6--|
g|--6---------------2-------------------6------6---------2----------------|
D|--8---8-----------3---------------------8---------------3---------------|
A|--8---------------3----------------8---------------------3--------------|
E|--6---------------1--------------6------------------------1-------------|
Bm
Gdje stanes nogom tu zemlja se trese,
Bm
i uvjek takve kao ti mi se dese,
G# F Bm
svi te gledaju, svi bi da te imaju.
Pogledom prekidas ljude na pola,
kad igras rusis svo pice sa stola,
svi te gledaju, svi bi da te imaju.
D#m F# F
Ti zavodis ljude a kazes da - nije tako,
D#m F# F F7
ja bez tebe ne mogu, s' tobom mi nije lako - nije mi lako.
Ref:
Bm F Bm
Nisam ljubomoran, nisam, ali hocu da znam,
Bm F Bm
jesmo li jedno za drugo ili prolazna stvar,
Bm7 D#m Bm
ako pogledas drugog - drugu pogledacu ja,
F Bm
sve sto mozes ti - mogu i ja,
Bm7 D#m Bm
ako pogledas drugog - drugu pogledacu ja,
F F#F Bm
sve sto mozes ti - mogu i ja.
VLADO GEORGIEV :: BOLESNI OD LJUBAVI
C
Dugo te poznajem, ti dobro me znas
C
sjecam se mogla si i sebe da das
337
F
za ljubav sto postoji
C
al ne moze da zivi
G
jer krivi smo ti i ja
C
Jos uvijek znam sve sto sam znao i tad
C
i mogu reci sto sam rekao i tad
F
al' slagacu kad kazem
C
da prestacu da lazem
G
lazem kao ti kad kazes

da ces mi vjerovati
C F
Sa tobom tonem u vir
Dm Am G
bez tebe nasukan kao BROD na hrid
C F
i ide nam i ne ide
Dm G
samo da drugi ne vide
C F
Nemas a dala bi sve
Dm Am G
samo da opet bude kao ranije
C F
o, zar smo to JA i TI
Dm G G-let ring
bolesni od ljubavi
C
Koliko puta mislim gdje li si sad
C
krenem bas nikuda i sretnem te tad
F
i tako osmjeh mi izvuces
C
pod kozu se uvuces
G
i opet, sve po starom
C
Jos uvijek znam sve sto sam znao i tad
338
C
i mogu reci sto sam rekao i tad
F
al' slagacu kad kazem
C
da prestacu da lazem
G
lazem kao ti kad kazes
VLADO GEORGIEV :: JEDINA
F#m
cinim sve, mislim najbolje za nas
F#m
krijem se, mislim ne treba da znas
Hm7 G
jedina, istina nije da si jedina
G#m7 C#sus4 F#m
al` trebalo bi jer si najbolja
G# C#sus C# D
izmedju ljubavi i nas ,je laz i istina
dobro znam,svaki dodir tvoj i glas
al` gubim se ona izmedju je nas
jedina istina nije da si jedina
a,trebalo bi jer si najbolja
izmeju ljubavi i nas je laz i istina
REFx2:
Hm7 E7
Kad vino popijem i razum izgubim
A D
sve zaboravljam i nista ne vidim
Hm7 G#
i tebe dodirnem, drugo ime dozivam
C# F#m F#m
aaa, pijan ti dusu otvaram
akordi iz refrena uz pjevanje:
nana na na
dobro znam,svaki dodir tvoj i glas
al` gubim se ona izmedju je nas
jedina istina nije da si jedina
a,trebalo bi jer si najbolja
izmeju ljubavi i nas je laz i istina
ref x4.
339
VLADO GEORGIEV :: JEDINO NAM LJUBAV OSTAJE
B F
Dolazim kao dobra vjest
B F
odlazim kao ruzan san
D# Gm F
sanjam te svaki dan, i zelim
D# Gm F
da zauvjek potraje taj san
B F
Vracam se zauvjek
B F
molim se za tebe
D# Gm F
placam sve dugove
D# Gm F D# F
i prihvatam sve samo zbog tebe
REF:
B F D# F
I sve cu noci dati za samo jedan dan
B F D# F
da bude kao prije, necu da budem sam
D# B F B D#
ti i ja, znamo najbolje
D# F B
jedino nam ljubav ostaje
B F
Vracam se zauvjek
B F
molim se za tebe
D# Gm F
placam sve dugove
D# Gm F D# F
i prihvatam sve samo zbog tebe
REF:
B F D# F
I sve cu noci dati za samo jedan dan
B F D# F
da bude kao prije, necu da budem sam
D# B F B D#
ti i ja, znamo najbolje
D# F B
jedino nam ljubav ostaje
ref:
G C G F G
340
I sve cu noci dati za samo jedan dan
C G F G
da bude kao prije, necu da budem sam
F C G C F F Em
ti i ja, znamo najbolje
F G C
jedino nam ljubav ostaje
F G C
jedino nam ljubav ostaje...
VLADO GEORGIEV :: LAGALA SI ME
intro(spori ritam) x2: Em C H Em
Em
Evo pisem ti nisam dosao
H
danas ja sam ipak shvatio
Am7 G
da u ljubavi nismo ti i ja
Am H
a bila mi je zelja istina.
Sve sam cinio da bih te imao
i ne znam sta sve nisam radio
sebe trazio i tebe branio
Am H Em H
a ti ni hvala nisi rekla nikada.
Em C
Ref: I samo lagala si me, lagala si me
H Em H
i da me nadjes kasno je.
Em C
Lagala si me, lagala si me
H Em H
i da me nadjes kasno je.
Intro(brzi ritam) x2: u je je je
Evo pisem ti, ti ces citati
sta ce tebi ovo znaciti
da l' ces zaliti, tiho plakati
il' ces samo moje pismo baciti.
A sve sam cinio da bih te imao
i samo sam se dobrom nadao
sebe trazio i tebe branio
a ti ni hvala nisi rekla nikada.
341
Em C
Ref: I lagala si me, lagala si me
H Em H
i da me nadjes kasno je.
Em C
Lagala si me, lagala si me
H Em H
i da me nadjes kasno je.
Ref.x2
VLADO GEORGIEV :: AN+ELE
uvod: Hm, F#7 Hm
Hm Em
Govore ljudi sta im je volja
G F#
Ako to jos ne znas nisi ni ti bolja
Hm Hmmaj Hm7 Hadd9 Em Emmaj Em7 Eadd9
Sve ce ti reci samo da sude
A A
Da naude meni da me ne volis vise
F# Hm
A ja sanjam snove lude
C# F# F#7
I dacu sve da tako bude
ref:
Hm G
Andjele, andjele
Em F# Hm F#7
Istina nije da nesto krijem od tebe
Hm G
Pogledaj me, pogledaj me
Em A
Vidis li nisam vise svoj
A D H
Vidis li da sam samo tvoj
C# F# Hm *G*
Andjele, andjele
Cm Fm
Govore ljudi i tako te lazu
G# G
Sve sto pricaju ti neka meni kazu
Cm Fm
Svi ce pomoci samo da sude
B
Al istinu pravu ja cu ti reci
342
G Cm
Samo noci s tobom lude
D G G7
I dacu sve da tako bude
ref:
Cm G#
Andjele, andjele
Fm G Cm G7
Istina nije da nesto krijem od tebe
Cm G#
Pogledaj me, pogledaj me
Fm B
Vidis li nisam vise svoj
B D# C
Vidis li da sam samo tvoj
D G Cm
Andjele, andjele
VLADO GEORGIEV :: MI NISMO MI
intro: Am pa prazne sve pa Am
Am
Kako da ti kazem, kako to,
Dm
od ljubavi je malo ostalo,
B
govori ti srce, cutim ja,
F G
mi nismo mi, ti nisi ta.
Am
Znam da ima puno razloga,
Dm
da ne budemo skupa ti i ja,
B
isuvise nas toga razdvaja,
F E7 Am Am
mi nismo mi i samo to je istina.
Ref.x2:
A7 Dm
Jer ja ne mogu da zivim u lazi,
Am
ako to mozes ti, samo mi kazi,
G
da mi nismo mi i da to nije to,
F E7 Am
ti imas vremena, a ja ga ne bih trosio.
343
Intro x4
Am
Znam da ima puno razloga,
Dm
da ne budemo skupa ti i ja,
B
isuvise nas toga razdvaja,
F E7 Am
mi nismo mi i samo to je istina.
Refren x2
VLADO GEORGIEV :: PUT DO SRCA TVOG
Intro: E A, E A, E H A E A
Razlaganje na pocetku koje se provlaci kroz veci deo pesme:
E A
E|-------0------------|
H|--------0------3----|
G|-----1----1----3----|
D|----2----------3----|
A|--------------------|
E|---0----------------|
C#m A
Gdje da putujem?
C#m A
Gdje da ostanem?
E H C#m A
uz tebe ja sam sve vidio
C#m A
stare mostove
C#m A
mokre ulice
E H C#m A
duge obale i more nemirno
H
svijet dok se rusio
Nije istina
da zboravljam
sva tvoja nadanja i stradanja
al' ne zaboravi
da sam najbolji
kog si ikada mogla imati
C#m A
tek ces se kajati
344
H
kao ja
Ref:
A E H
Koliko sam lazi izreko
A E H
toliko sam zla sebi nanio
A E H
al' nesto se u meni slomilo
F#m (A) H
i dusu sam otvorio
Koliko sam zora svanuo
toliko ti dusu ranio
i ne moze mi pomoci ni Bog
F#m H C#m
da nadjem put do srca tvog.
VLADO GEORGIEV :: RECI MI DA ZNAM
razlaganje Hm F#
uvod x4:
Hm x2 F# x2
e------------------ -------------------
h------------------ -------------------
g---------4-----4~- ----------3-----3~-
d-------4-----4---- -------------------
a-2-2-2-----2------ -------4------4----
e------------------ -2-2-2------2------
Hm
Ako ides bilo gdje jedno znaj,
G
necu ti stajati na put,
Em F#
budi iskrena, ja necu biti ljut.
Hm
I svaku svoju tajnu otkrij mi,
G
reci mi da znam, ucini to,
Em F#
samo budi iskrena i bicu prijatelj tvoj.
Hm G
Znaj, ljubavi svakoj dodje kraj,
Em
kad dvoje losi postanu,
345
F#7 F#7
prijatelji tesko ostanu.
Hm G
I dobro znaj, za tebe uvijek bicu tu,
Em
u pola noci kad ti zatrebam,
F#7
ko prijatelj cu puno da ti dam,
Hm
samo mi reci da znam.
Hm
Ako jednog dana sama osjetis,
G
potrebu da zivot promjenis,
Em
da s drugim probas to,
F#
necu ti uzeti za zlo.
I svaku svoju tajnu otkrij mi,
reci mi da znam, ucini to,
samo budi iskrena i bicu prijatelj tvoj.
Refren x2
VLADO GEORGIEV :: SVE SI MI TI
Uvod: Asus2(002200) Dsus2(000230) x3 Asus2
Asus2 E Asus2
Toliko toga znamo ti i ja
A Dsus2E
...med u noci_ma.
Asus2 E Asus2
S'tobom i kad ne razgovaram
F#m Dsus2E
...pricamo oci__ma.
F#m Dsus2
Necu ti kriti sve znas
Hm E
previse zelim te ja.
A D A
Ref : Sve si mi ti, reci da si moja, reci mi
F#m D A E
samo da cujem i ako vec znam.
A D A
Ti samo ti, reci da si moja, reci mi
F#m D E A
i bicu zauvek s'tobom ili sam.
346
Intro - brzo x4
Za lude misli nemam vremena
...ti ih odvlacis.
U mojoj sobi nema oblaka
...jer ti se oblacis.
F#m Dsus2
Necu ti kriti sve znas
Hm E
previse zelim te ja.
A D A
Ref1: Sve si mi ti, reci da si moja, reci mi
F#m D A E
samo da cujem i ako vec znam.
A D A
Ti samo ti, reci da si moja ljubavi
F#m D E A
i bicu zauvek s'tobom ili sam.
Intro - brzo x8
A D A
Refn:Sve si mi ti, reci da si moja, reci mi
F#m D A E
samo da cujem i ako vec znam.
A D A
Ti samo ti, reci da si moja ljubavi
F#m D E A
i bicu zauvek s'tobom ili sam.
VLADO GEORGIEV :: ZENA BEZ IMENA
Intro:
e|---------------------------------------------------------------------------||
h|--8---------8---------------------8--------------------------8-------------||
g|-10---------9--------------------10----------------------------------------||
D|-----10--9-----9--7------------------10--9~---10--9-----7/9------9---7-----||
A|-----12-10----10--8---------7--------12-10~---12-10-------------10---8-----||
E|----------------------5-7-8------------------------------------------------||
Am Em
Zar je vazno ko su ljudi i ko sam ja,
Dm E
kad ljubim samo jednu bez imena.
Am Em
A bilo je samo jednom i nikada,
Dm E
sada daleko od tvojih usana i pogleda.
347
Am G F G F
Rekla si da cemo sve opet ponovo,
F E E-let ring
ako bude nam sudjeno...
Ref:
Am F
Ja zauvjek bicu tu, zaklet na ljubav cekacu,
G F C F E
reci mi gdje da nadjem te - i dolazim , dolazim
Am G
zauvjek bicu tu samo na tebe cekacu,
G C F E Am
reci mi gdje si nestala da znam - zeno bez imena.
Dugi dani igra sudbine kad ne ide,
tvoje ime drugom malo je a meni sve.
A bilo je samo jednom i nikada,
sad daleko od tvojih usana i pogleda.
Rekla si da cemo sve opet ponovo,
ako bude nam sudjeno...
Ref:
VLADO GEORGIEV :: ZIVIM DA TE NADJEM
Em
Svako te pominje
C
i svakog briga je
D G H
sta se to desilo sa nama
Em
Pomislim poziv je tvoj
C
a znam da ne znas ni broj
D G E7
sta se to desilo sa nama
Am Em
U sve cu da vjerujem samo da ljubim te
F# H
drugi te kradu od mene ja ipak nadam se
Em H Am H Em
Zivim da se vratis, znam da je tesko opet da nadjes put,
Em C Am H
348
zivim da te nadjem, zbog tebe zivim ja,
Em C
ti si jedini razlog ja znam,
Am H Em H
al ostani sama da te pronadjem i da te vratim,
Am H Em
znam da je tesko opet da nadjes put,
Em C Am H
zivim da te nadjem, zbog tebe zivim ja
Em C Am H Em
ti si jedini razlog ja znam, ostani sama, ostani molim te
Svako te pominje
i ko da vjeruje da
tako govoris o nama
Pomislim poziv je tvoj
a znam da ne znas ni broj
sta se to desilo sa nama
Sve cu da vjerujem samo da ljubim te
drugi te kradu od mene ja ipak nadam se
Zivim da se vratis, znam da je tesko opet da nadjes put,
zivim da te nadjem, zbog tebe zivim ja,
ti si jedini razlog ja znam,
al ostani sama dok te pronadjem i dok te vratim,
znam da je tesko opet da nadjes put,
zivim da te nadjem, zbog tebe zivim,
ja ti si jedini razlog ja znam, ostani sama, ostani molim te
VLADO GEORGIEV :: SAMA BEZ LJUBAVI
A D
Danju budem sam
A D
nocu negdje zalutam
A D
tamo gdje si ti
F#m E
ti, ljubavi
A D
Vjesto pravim se
A D
al' nije lose, dobro je
A D
kad nazad ne mogu
F#m E
samo jedno brine me
349
F#m D E
dal mi nekad ime spomenes
F#m D E E
i pomislis li da me pozoves
A D E A
Srce je moje veliko za dvoje
F#m D A E
ako si i ti sama bez ljubavi
A D E A
srce moje je veliko za oboje
F#m D
ako si i ti
F#m
kao i ja
D AE-let ring A
sama,sama bez ljubavi
Bridge(kao refren):
A D E A // F#m D A E
Vjesto pravim se
al' nije lose, dobro je
JA nazad ne mogu
i zaboravicu sve
i briga me sto vino rasipam
i uspomene tebi ostavljam
refren x2
350

2

IZVUCI SADRZAJ-226 strana
DIVLJI ANĐELI - VOLI TE TVOJA ZVER intro: (G) Dm G, Dm G, Dm G, Dm G C Cmaj C F Fadd11+ F 3x Dm G G C F Am M-m-m Tvoj dah me mami da ti se dam C F C F I hocu, dugo, dugo sam sam C F Am F Ne, necu za nju, necu da znam C F C F Tvoj dah me mami da ti se dam Am G Am Voli te, voli te, tvoja zver G Am Princ iz zivota tvog G Am G Sudbine tvoje dar i zar ref 1: F G C Ostavio sam trag po telu tvom F G C Koji nikad, nikad nece da prodje F G C Ostavio sam prah u srcu tvom F G I to ce uvek, uvek da traje ref 2: Am G Am Ne, ti nisi htela andjela G Am Htela si crnog djavola G Am G Od mene si to i dobila < ref 1, 2 > Da znas... < solo: C Cmaj C < strofa 1, 2 > < ref 1, 2 > < ref 1, 2 > ELEKTRIČNI ORGAZAM :: DAL’ SI TAKO JAKA Am C G/B e-|-----------0---------------------------B-|-------------1-------------1-----------F Fadd11+ F 3x, Dm G > F

You're Reading a Free Preview

Download
scribd
/*********** DO NOT ALTER ANYTHING BELOW THIS LINE ! ************/ var s_code=s.t();if(s_code)document.write(s_code)//-->